Oops, an error
Loading. Please wait.

Cold Roses Tab

version 1
version 1

Whole song

26,543 views 42 this week
no commentswrite comment
1 2 3 4 5
x 7
add to favorites
launch autoscroll
font size
0
reset
how to read this tab
guitar tuner
Autoscroll
slow
fast
+/-
esc
set tempo
stop
Help us to improve Ultimate-Guitar.com Take our survey!
×
Author
Cold Roses - Ryan Adams
Tabbed by Jordi Brown

Standard Tuning

Intro
e--5p4p2-0-2----------------------------------------------------|
b------------5p4p2-2-4-4----------------------------------------|
g----------------------------4----------------------------------|
d------------------------4h6---6-4------Play 4 Times------------|
a---------------------------------------------------------------|
E-(0)-----------------------------------------------------------|

e------------------------5p4p2-0-2-let ring---------------------|
b---------------------------------------------------------------|
g-2-2-----------------4-----------------------------------------|
d-2-2-------2-2-------4-----------------------------------------|
a-0-0-------2-2-----2-2-----------------------------------------|
E-----4-2-0-0-0-2h34--------------------------------------------|

Verse

B5
Mirrors in the room go black and blue, on a
C#min                 E
Sunday Morning in her saturday shoes.
B5                    F#min         A    Riff 1
We don't chose who we love, we dont chose

(Riff 1) After the Verse
e-----------5p4p2-0-2-------------------------------------------|
b---------------------5p4p2-0-----------------------------------|
g-2-----4---------------------4---------------------------------|
d-2-----4---------------------4---------------------------------|
a-0-----2---------------------2---------------------------------|
E---4-2---------------------------------------------------------|

Verse 2

B5
The lights over midway melt on the street, in her
C#min                   E
Saturday shoes with her saturday feet
B5                   F#min
She dont love who he choose, and
A              Riff 1
She don't need what she use.

Chorus

F#min              A
Daylight comes and exposes
E
Saturday's bruises, and
B5    A     E
Coooolllddd Roses (2 Times)

(Back to Intro Riff)

Verse 3(Same Chords)

Nothing but sunlight will help you grow,
From underneath you bed, you cant
See the window
We done chose what we see
we dont choose (Riff 1)

Verse 4

Fortunate and angry, just like a child
All that money buys your medicine,
but cant buy ya time.
We dont chose who love, and she dont
chose what she got. (Riff 1)

(Back to Chorus)

Solo (After Riff 1 at the end of Chorus)
e---------------------------------------------------------------|
b->5-5-3-2-3>5-5-3-2-3let ring-5p4p2-2-4------------------------|
g------------------------------------------play a few times-----|
d---------------------------------------------------------------|
a---------------------------------------------------------------|
E---------------------------------------------------------------|

e---------------------------------------------------------------|
b---------------------------------------------------------------|
g-4---Ad lib around-this riff---2h4-bend to(5)------------------|
d-4-------------------------------------------------------------|
a-2-------------------------------------------------------------|
E---------------------------------------------------------------|

B5    A     E    Riff 1
Coooolllddd Roses  (3 Times)

Enjoy.
Hope everything is ok. have a good day.
Suggest correction
comments
print report bad tab
guest
You may want to rate the tab now too:
select rating
Wanna post a correction for this tab? Suggest correction