Oops, an error
Loading. Please wait.

Come Pick Me Up Bass Tab

5,711 views 3 this week
no commentswrite comment
1 2 3 4 5
1 last vote to show rating
add to favorites
launch autoscroll
font size
0
reset
guitar tuner
Autoscroll
slow
fast
+/-
esc
set tempo
stop
Help us to improve Ultimate-Guitar.com Take our survey!
×
Author
Difficulty
intermediate
----------------------------------------------------------------------------
			Come Pick Me Up - Ryan Adams
----------------------------------------------------------------------------

Tabbed By : Rob Fox
e-mail: nine_ways_to_sunday@yahoo.com

Listen to the song for the timing...      ...and enjoy.

Tuning: Standard

Intro: x1
G|-------------------------------------------------------------------------|
D|---------------5-8-10-8--------------------------------------------------|
A|---8\---5----6----------10---8\---5----6-5-3-----------------------------|
E|-6----3--------------------6----3------------3---------------------------|

G|-------------------------------------------------------------------------|
D|---------------5-8-10-8--------------------------------------------------|
A|---8\---5----6----------10---8\---5----6---------------------------------|
E|-6----3--------------------6----3----------------------------------------|


Verse: x2
G|-------------------------------------------------------------------------|
D|-------------------------------------------------------------------------|
A|-------------------------------------------------------------------------|
E|-6--------------------------3--------------------------------------------|
     When they call your name   Will you walk right up?

G|-------------------------------------------------------------------------|
D|-------------------------------------------------------------------------|
A|-6----------------------------3------------3-----------------------------|
E|-----------------------------------------3---6---------------------------|
     with a smile on your face?


Pre-Chorus: x1
G|-------------------------------------------------------------------------|
D|-------------------------------------------------------------------------|
A|---3-3----5----6--------3----5----6--------------------------------------|
E|-3-----------------------------------------------------------------------|


Chorus: x2
G|-------------------------------------------------------------------------|
D|--------------8-----------------------------8----------------------------|
A|---8--------6---6-6----5-3--3-3---6----8h10---10-8-----------------------|
E|-6---6-6------------------------3----------------------------------------|

After chorus:

Intro Riff x2

Verse x2

Pre-Chorus x1

Chorus x2

Intro riff x2

Bridge: x4
G|-------------------------------------------------------------------------|
D|-------------------------------------------------------------------------|
A|-8--------6--------------------------------------------------------------|
E|------10-----------------------------------------------------------------|

You get the basic idea by now, for the rest of the song, 
just kind of play around with the intro riff.

| /  slide up
| \  slide down
| h  hammer-on
| p  pull-off
| ~  vibrato
| +  harmonic
| x  Mute note
===============================================================================
Suggest correction
Give kudos to tab author, rate the tab!
1 2 3 4 5
comments
print report bad tab
guest
You may want to rate the tab now too:
select rating
Wanna post a correction for this tab? Suggest correction