Oops, an error
Loading. Please wait.

Cry On Demand Tab

19,306 views 24 this week
no commentswrite comment
1 2 3 4 5
accurate
x 3
add to favorites
launch autoscroll
font size
0
reset
how to read this tab
guitar tuner
Autoscroll
slow
fast
+/-
esc
set tempo
stop
Help us to improve Ultimate-Guitar.com Take our survey!
×
Author
RYAN ADAMS - CRY ON DEMAND

(from 'Demolition')
tabbed by Keir Alexander

dropped D tuning : D A D G B E

intro / verse chords:

       G1    C1
E|-----5-----3-----|
B|-----3-----1-----|
G|-----4-----0-----|
D|-----0-----2-----|
A|-----0-----3-----|
D|-----5-----x-----|

(bridge)
(emphasize base notes, try to avoid playing notes marked x)

G|----0----0----0----0----0----0----0----0----0----0----0----0--|
D|----0----0----0----0----0----0----0----0----0----0----0----0--|
A|----5----5----5----5----5----5----5----5----5----5----5----5--|
D|--4----4----4----4----5----5----5----5----4----4----4----4----|

G|----0----0----0----0----0----0----0----0----0----0----0----0--|
D|----0----0----0----0----0----0----0----0----0----0----0----0--|
A|----5----5----7----7----7----7----7----7--5----5----3----3----|
D|--5----5----7----7----7----7----7----7----x----x----x----x----|

G|------0----0----0----0----0----0----|
D|------0----0----0----0----0----0----|
A|----3----3----3----3----3----3------|
D|----x----x----x----x----x----x------|

(chorus chords)

      G2    Am7   Cadd9   C/B   Asus4
E|----x------x------3------3------0----|
B|----3------1------3------3------3----|
G|----0------0------0------0------0----|
D|----0------2------2------0------2----|
A|----0------0------3------2------0----|
D|----5------x------x------x------x----|


(Intro)
G1   C1   G1   C1

(verse)
  G1                   C1
So, it's how the story goes.
     G1                                         C1
And we come to the scene where I'm holding you close.
    G1                              C1
She moves, moves like a thin dulling blade
G1                         C1
Cuts, all the words that I said


(bridge - see tab above)
The only difference is,
The only difference is,
The truth --
The truth is I miss you.

(chorus)
G2   Am7   Cadd9  C/B
Cry   on    demand.
         Asus4
How'd you learn to?
G2   Am7  Cadd9   C/B
Cry  on  demand.
Cadd9             Asus4
Teach me if you want to.
Cadd9              Asus4
Though you don't have to.
      Cadd9 C/B Asus4
I just close my eyes and think of you.

Email me with any suggestions at keiralx@yahoo.co.uk
Suggest correction
Give kudos to tab author, rate the tab!
1 2 3 4 5
comments
print report bad tab
guest
You may want to rate the tab now too:
select rating
Please do not post tabs as comments. Select "correction" instead!