Oops, an error
Loading. Please wait.

Dirty Rain Tab

6,073 views 6 this week
no commentswrite comment
1 2 3 4 5
excellent!
x 6
add to favorites
launch autoscroll
font size
0
reset
how to read this tab
guitar tuner
Autoscroll
slow
fast
+/-
esc
set tempo
stop
Help us to improve Ultimate-Guitar.com Take our survey!
×
Author
Difficulty
intermediate
This is my first tab. I looked at the live videos to take the chords. Enjoy this great song.

Intro: (Strumming)

E|-----------------------------|
B|-----------------------------|
G|--------1----------2---------|
D|--------2----------2---------|
A|--------2--------2/4(h)------|
E|-----0-----------------------| x4

Chords used:

   E       A/C#       B/D#      C#m      G#m7      A        B
|--0--| |----X--|  |----X--|  |--4--|  |--4--|  |--5--|  |--7--|
|--0--| |----5--|  |----7--|  |--5--|  |--4--|  |--5--|  |--7--|
|--1--| |----2--|  |----4--|  |--6--|  |--4--|  |--6--|  |--8--|
|--2--| |----2--|  |----4--|  |--6--|  |--4--|  |--7--|  |--9--|
|--2--| |--2/4--|  |--4/6--|  |--4--|  |--6--|  |--7--|  |--9--|
|--0--| |----X--|  |----X--|  |-----|  |--4--|  |--5--|  |--7--|

  F#m7
|--2--|
|--2--|
|--2--|
|--2--|
|--4--|
|--2--|

         E    
Last time I was here it was raining
           A/C#         E
It ain't raining anymore

The streets were drowning

Waters waning
         A/C#            B/D#
All the ruins washed ashore
       C#m                         G#m7
Now I'm just looking through the rubble
              A                E
Trying to find out who we were
           E
Last time I was here it was raining
         A/C#            E     A/C#    E
It ain't raining anymore


         E
Last time I was here you were waiting
             A/C#          E
You're not waiting anymore

The window's broke and the smoke's escaping
            A/C#                       B/D#
All the books scattered across the floor
               C#m                             G#m7
And the churchbells are ringing through the sirens
            A                        E
And your coat was full of bullet holes

Last time I was here you were waiting
                A/C#        E
You're ain't waiting anymore

Transition:
       A
|------5--|
|------5--|
|------6--|
|------7--|
|------7--|
|--2-4-5--|

  A
So may the wind blow
             slide to B
May the moonlight know your name
  A                                        slide to B
So let the needle move the record round til the walls cave in
           B       A             G#m7   F#m7       E
And you and I were out there dancing in the dirty rain


2nd verse and chorus : Same

Last time I was here it was raining
Like you ain't never ever seen it rain
And your eyes were filled with terror
And the smoke from the gasoline
As the stars exploded with gunfire
I saw you smiling just before
Last time I was here you were crying
You're not crying anymore

So may the wind blow
May the moonlight know your name
So let the needle move the record round til the walls cave in
You and I out there dancing in the dirty rain

For the rest of the                
song he uses:                  2 last chords

|-0---------------0---|     |---------------0----|
|-0---3---2/3/2---0---|     |---3---2-------0----|
|-1---2---2-------1---|     |---2---2-------1----|
|-2---0---2-------2---|     |---0---2-------2----|
|-2---0---4-------2---|     |---0---4-------2----|
|-0---------------0---|     |----------3b---0----|


Dirty rain
In the dirty rain
Suggest correction
What's this?
You can suggest a correction to this tab. Community and Mods will review your correction and vote to approve or reject it.
comments
print report bad tab
guest
You may want to rate the tab now too:
select rating
Please do not post tabs as comments. Select "correction" instead!