Oops, an error
Loading. Please wait.

Do I Wait Tab

3,240 views 12 this week
no commentswrite comment
1 2 3 4 5
please rate
add to favorites
launch autoscroll
font size
0
reset
how to read this tab
guitar tuner
Autoscroll
slow
fast
+/-
esc
set tempo
stop
Help us to improve Ultimate-Guitar.com Take our survey!
×
Author
Difficulty
novice
-----------------------------------------------------------------------------
                             DO I WAIT – Ryan Adams
-----------------------------------------------------------------------------
Tabbed by:Human371 (Dylan Sonderman)
E-mail:dsonderm@kent.edu

Tuning: Standard


The chords for the other tabs of this song were mostly correct. I mainly am just 
uploading this version for a minor edit and the inclusion of the sweet guitar solo that starts 
at 2:24 in the song.


Intro and Verses: Acoustic
e|--0---0--3--0--0----------|
B|--1---1--0--1--0----------|
G|--0---0--0--2--0----------|
D|--0h2-2--0--2--2----------|
A|--3—--3--2--0--2----------|
E|---------3-----0----------|

Chorus: G D Am C
Listen to song for timing.
Also acoustic





Solo: Electric with heavy reverb

e|----------------------10--------------------------|
B|------5--8--10-10/12-----12~~~~-------------------|
G|---7----------------------------------------------|
D|--------------------------------------------------|
A|--------------------------------------------------|
E|--------------------------------------------------|

e|----------------------10--------8-7---------------|
B|------5--8--10-10/12-----12~~~------10-8----------|
G|---7--------------------------------- ------------|
D|--------------------------------------------------|
A|--------------------------------------------------|
E|--------------------------------------------------|

e|----------------------10-------------------8-7----|
B|------5--8--10-10/12-----12~~~---12~~~-12------10-|
G|---7----------------------------------------------|
D|--------------------------------------------------|
A|--------------------------------------------------|
E|--------------------------------------------------|


e|------------------------------------------------------|
B|------5--8-7--5---------------------------------------|
G|---7------------7-------------------------------------|
D|-------------------9--7/9—9~~-------------------------|
A|------------------------------------------------------|
E|------------------------------------------------------|






************************************

| /   slide up
| \   slide down
| h   hammer-on
| p   pull-off
| ~   vibrato
| +   harmonic
| x   Mute note
| b   Bend
| pb  Pre-bend
| br  Bend release
| pbr Pre-bend release
| brb Bend release bend

************************************
Suggest correction
Give kudos to tab author, rate the tab!
1 2 3 4 5
comments
print report bad tab
guest
You may want to rate the tab now too:
select rating
Please do not post tabs as comments. Select "correction" instead!