Oops, an error
Loading. Please wait.

Dreamings Free Im Alright Today Tab

1,781 views 1 this week
no commentswrite comment
1 2 3 4 5
please rate
add to favorites
launch autoscroll
font size
0
reset
how to read this tab
guitar tuner
Autoscroll
slow
fast
+/-
esc
set tempo
stop
Help us to improve Ultimate-Guitar.com Take our survey!
×
Contributor
Capo
3rd fret
OK, I know it's not 100% but it's enough to have you playing and singing away!
Hope you enjoy it, one of my favourite DRA songs.

Sendeshi


~Capo 3rd~

Intro  x2


---------------------------------------3------|
---------------------------------------3------|
---------------------------------------0------|
------0--0--0--0-------------0--0-------------|
------0--2--3-------------0--2--3--3----------|
--3--------------------3----------------------|

Verse x2


----------------------------------------------------------------------------|
----------------------------------------------------------------------------|
----------------------------------------------------------------------------|
--------0--0--0-------------------------------------------------------------|
-----0--2--3-----------3--2--0-----0--------3--2--0-------------------0h2p0-|
--3-----------------------------3--------------------3--3-------------------|

"I'm all locked.."    "Watching the.."    "Someplace in your..."    "My dear"

Chorus (This is the bit I struggled with, I tried to get as close as possible)


-0h2--2---3p2h3----3--3--3--------------------|
-3----3---3---3----3--3--3--------------------|
-2----2---2---2-------------------------------|
-------------------2--2--2--------------------|
-------------------3--3--3--------------------|
----------------------------------------------|
"Thank God dreaming's free"
"Cause I, spent all my money making make believe"

   C             G               Am
------------------------------------------------|
----------------------------------------0h1-----|
-------0-----------------------------2----------|
----2---------------0-------------2-------------|
-3---------------2------------------------------|
--------------3---------------------------------|
"It's kind of what I'm doing anyway"
"And I know your love has finally come to stay"


(Strum down then up)-

---3--3-----------3--3------------------------|
---3--3-----------3--3------------------------|
----------------------------------------------|
------------------2--2------------------------|
---2--2-----------3--3------------------------|
---3--3---------------------------------------|
  "Today"        "Today"


Bridge
  G          C
Call Me,  Anytime
  G          C
Call Me,  Anytime
  G          C
Call Me,  Anytime
 G                 C
I'll Be Yours, Will You Be Mine
  G                  C
Yes I'll Be Yours, Will You Be Mine
 G                 C
I'll Be Yours, Will You Be Mine


---3--3-----------3--3------------------------|
---3--3-----------3--3------------------------|
----------------------------------------------|
------------------2--2------------------------|
---2--2-----------3--3------------------------|
---3--3---------------------------------------|
  "Today"        "Today"


(Different Verse Ending)
Towards then second half of the final verse the guitar changes like this-


----------------------------------------------------------------------|
----------------------------------------------------------------------|
--------------------5--4--2--0--2----5--4--2--0--0--2/4/2-------------|
--------------0-------------------------------------------------------|
-----0--2--3----------------------------------------------------------|
--3-------------------------------------------------------------------|


Order-

Into x2

Verse x2

Chorus

Verse x2

Chorus

Bridge

Verse with Different Ending x 2

Intro

The end of the song is the different verse ending, just play around with it a bit.

And yeah, leave some comments and suggestions, I probably messed it up big time but it 
still playable.

Cheers
comments
We did not receive enough feedback on this tab! Please rate:
print report bad tab
1 2 3 4 5
I want to post or [tab]
guest
You may want to rate the tab now too:
select rating
Please do not post tabs as comments. Select "correction" instead!