Oops, an error
Loading. Please wait.

Fuck It I Broke Your Cat Tab

3,355 views 1 this week
1 commentread comment
1 2 3 4 5
please rate
add to favorites
launch autoscroll
font size
0
reset
how to read this tab
guitar tuner
Autoscroll
slow
fast
+/-
esc
set tempo
stop
Help us to improve Ultimate-Guitar.com Take our survey!
×
Author
-------------------------------------------------------------------------------
           Fuck It . . .I Broke Your Cat - Ryan Adams and the Pinkhearts
-------------------------------------------------------------------------------
Tabbed by: TheTroy
Tuning: Standard

Intro
e|---------------------------------------------------------------------------|
B|---------------------------------------------------------------------------|
G|---------------------------------------------------------------------------|
D|-7-7-7-7-6-6-6-6-4-4-4-4-2-2-2-2-------------------------------------------|
A|-7-7-7-7-6-6-6-6-4-4-4-4-2-2-2-2-------------------------------------------|
E|-5-5-5-5-4-4-4-4-2-2-2-2-0-0-0-0-------------------------------------------|

Second Guitar - intro
e|---------------------------------------------------------------------------|
B|---------------------------------------------------------------------------|
G|---------------------------------------------------------------------------|
D|-7-7-6-6-2/4-4-2-----------------------------------------------------------|
A|---------------------------------------------------------------------------|
E|---------------------------------------------------------------------------|

Verse pt 1 - same as intro

Verse part 2
e|---------------------------------------------------------------------------|
B|---------------------------------------------------------------------------|
G|---------------------------------------------------------------------------|
D|-7-7-7-7-6-6-6-6-4-4-4-4-6-6-6-6-7-7-7-7-6-6-6-6-4-4-4-4-6-6-6-6-----------|
A|-5-5-5-5-4-4-4-4-2-2-2-2-4-4-4-4-5-5-5-5-4-4-4-4-2-2-2-2-4-4-4-4-----------|
E|---------------------------------------------------------------------------|

verse pt 1

Chorus i think?
e|---------------------------------------------------------------------------|
B|---------------------------------------------------------------------------|
G|---------------------------------------------------------------------------|
D|-9-9-9-9-9-9-9-9-9-9-9-9-9-9-9-9-9-9-9-9-9-9-9-9-9-9-9-9-9-9-9-9-----------|
A|-7-7-7-7-7-7-7-7-7-7-7-7-7-7-7-7-7-7-7-7-7-7-7-7-7-7-7-7-7-7-7-7-----------|
E|---------------------------------------------------------------------------|

that is all you need. thats all that is in the song

| /  slide up
| \  slide down
| h  hammer-on
| p  pull-off
| ~  vibrato
| +  harmonic
| x  Mute note
===============================================================================
Suggest correction
Give kudos to tab author, rate the tab!
1 2 3 4 5
comments
print report bad tab
1 comment total.
0 reply
Sendeshi 43 wrote on December 27 2008, 09:12 am

Cheers man, been looking for this tab everywhere

guest
You may want to rate the tab now too:
select rating
Wanna post a correction for this tab? Suggest correction