Oops, an error
Loading. Please wait.

Gimme Sunshine Tab

2,411 views 1 this week
no commentswrite comment
1 2 3 4 5
3 more votes to show rating
add to favorites
launch autoscroll
font size
0
reset
how to read this tab
guitar tuner
Autoscroll
slow
fast
+/-
esc
set tempo
stop
Help us to improve Ultimate-Guitar.com Take our survey!
×
Author
                          Tabbed by: Mark Peters
                     Email: markpeterz@hotmail.co.uk


Few Quick Points:

This is based on the version on his myspace, it's quoted that it's from the 'Japanese 
of "Love Is Hell"'

There's a bass guitar as well as a lead guitar playing riffs in the background. The 
i've put here does go with the song, but the bass guitar makes it seem a bit off at times, 
you listen you'll hear what i mean.

Changing on the first chord the bass guitar (relative to an acoustic) goes:

D --------------|
G --2--0--------|
E -------4--0---|

And then leads in to the second pattern, so little things like that make it seem off at times.


Tuning: DGDGBe, Capo 3

(the top bass notes E&A tuned down a full tone each = D&G)

Pattern 1:

e|---------0---------------------0-------------------------------------------|
B|-----3-----3---3----------3------3-----------------------------------------|
G|-------2-----2-----(x3)------2---------------------------------------------|
D|---0--------------------0--------------------------------------------------|
G|-----------------------------------(2--0-----------------------------------|
D|-----------------------------------------4--0)-----------------------------|

Pattern 2:

e|--------0----------------------0-------------------------------------------|
B|----3-----3---3----(x3)---3------3-----------------------------------------|
G|------2-----2----------------2---------------------------------------------|
D|---------------------------------------------------------------------------|
G|-----------------------------------(2--0-----------------------------------|
D|--0---------------------0----------------4--0)-----------------------------|

Pattern 3:

e|---------0-----------------------------------------------------------------|
B|-----3-----3---3---(x4)----------------------------------------------------|
G|-------2-----2-------------------------------------------------------------|
D|---------------------------------------------------------------------------|
G|--0------------------------------------------------------------------------|
D|---------------------------------------------------------------------------|

Pattern 4:

e|--------0--------------0---------------0--------------0--------------------|
B|----3-----3---3----3-----3---3-----3-----3---3----3-----3---3--------------|
G|------2-----2--------2-----2---------2-----2--------2-----2----------------|
D|---------------------------------------------------------------------------|
G|--------------------------------0---------------2--------------------------|
D|--2--------------4---------------------------------------------------------|


** These are the version of lyrics on the track **

Intro: Pattern 1, Pattern 2, Pattern 3, Pattern 1

pattern 1
Hey there, Rag Doll
pattern 2
Baby face
pattern 3        pattern 2
Swollen eyes and vodka glaze
pattern 1
Give me sunshine
pattern 2
Give me hell
pattern 1
Come on baby
pattern 2
Help me out

Pattern 4               Pattern 1
Sun shining in her eyes
Pattern 4               Pattern 1
Sweet shuffle of her feet

Pattern 3,  Pattern 1, Pattern 3, Pattern 2
Ohhhhhh (x4)

pattern 1
Wounded lil gal
pattern 2
Baby face
pattern 3        pattern 2
Swollen eyes and lost in space
pattern 1
Give me sunshine
pattern 2
Give me hell
pattern 1
Come on baby
pattern 2
Help me out


pattern 4           pattern 1
Sun shining in her eyes
pattern 4           pattern 1
Sweet shuffle of her feet

Pattern 3,  Pattern 1, Pattern 3, Pattern 2
Ohhhhhh.....(repeated, fade out)
Suggest correction
Give kudos to tab author, rate the tab!
1 2 3 4 5
comments
print report bad tab
guest
You may want to rate the tab now too:
select rating
Wanna post a correction for this tab? Suggest correction