Oops, an error
Loading. Please wait.

I See Monsters Tab

version 1
version 1

Whole song

24,438 views 42 this week
4 commentsread comments
1 2 3 4 5
accurate
x 7
add to favorites
launch autoscroll
font size
0
reset
how to read this tab
guitar tuner
Autoscroll
slow
fast
+/-
esc
set tempo
stop
Help us to improve Ultimate-Guitar.com Take our survey!
×
Contributor
Capo
1st fret
Thanks to mightycoop, whose tab gave some
good hints in the beginning.

Tab is for the studio version of 'Love is Hell'-album

###############
#Capo 1st fret#
###############


Intro:

e|-----------------------------3---------------------------------2-|
B|----------------5------------------------------------------------|
G|----2-----2-2/6---4/2----2-----(p)0h2p0h2p0h2p0h2p0h2p0----2-----|
D|------2h4--------------------------------------------------------|
A|-0---------------------------------------------------------------|
E|-----------------------3---3-----------------------------2---2---|
                                                                      (x2)
e|----------------------------------------------------------------|
B|----------------------------------------------------------------|
G|(p)0h2p0h2p0h2p0h2p0h2p0----------------------------------------|
D|-----------------------------2---2---2---2---2---2----2---2---2-|
A|----------------------------------------------------------------|
E|---------------------------1---1---1---3---3---3----5---5---5---|


Verse:
       Baby I know  .. here me now           cause you're fast asleep
e|-----------------------------3---------------------------------2-|
B|----------------5------------------------------------------------|
G|----2-----2-2/6---4/2----2-----(p)0h2p0h2p0h2p0h2p0h2p0----2-----|
D|------2h4--------------------------------------------------------|
A|-0---------------------------------------------------------------|
E|-----------------------3---3-----------------------------2---2---|

                      but i love you now
e|---------------------------------------------------------------|
B|---------------------------------------------------------------|
G|(p)0h2p0h2p0h2p0h2p0h2p0---------------------------------------|
D|-----------------------------2---2---2---2---2---2---2---2---2-|
A|---------------------------------------------------------------|
E|---------------------------1---1---1---3---3---3---5---5---5---|

       colors inside .. spinnin round              like a ferris wheel
e|-----------------------------3---------------------------------2-|
B|----------------5------------------------------------------------|
G|----2-----2-2/6---4/2----2-----(p)0h2p0h2p0h2p0h2p0h2p0----2-----|
D|------2h4--------------------------------------------------------|
A|-0---------------------------------------------------------------|
E|-----------------------3---3-----------------------------2---2---|

                exploding and falling to the ground
e|---------------------------------------------------------------|
B|---------------------------------------------------------------|
G|(p)0h2p0h2p0h2p0h2p0h2p0---------------------------------------|
D|-----------------------------2---2---2---2---2---2---2---2---2-|
A|---------------------------------------------------------------|
E|---------------------------1---1---1---3---3---3---5---5---5---|


Bridge:

 ooh people screaming    ..   my baby she's
e|-----------------------------------------|
B|-------2---------2----------2----------2-|
G|---2---------2----------2----------2-----|
D|-----2---------2----------2----------2---|
A|-0---------------------------------------|
E|----------4----------3----------2--------|

  dreaming
e|-------------------------------------|
B|-----------1-----------------1-------|
G|------0-------0---------0-------0----|
D|----2---2-------2-----0---0-------0--|
A|-------------------------------------|
E|-1-----------------3-----------------|

 ooh people shouting  ..  i'm just staring at the
e|-----------------------------------------|
B|-------2---------2----------2----------2-|
G|---2---------2----------2----------2-----|
D|-----2---------2----------2----------2---|
A|-0---------------------------------------|
E|----------4----------3----------2--------|

  ceiling        waiting for the feeling
e|-------------------------------------|
B|-----------1-----------------1-------|
G|------0-------0---------0-------0----|
D|----2---2-------2-----0---0-------0--|
A|-------------------------------------|
E|-1-----------------3-----------------|


Chorus:

  oooooohh-oooooooooohhhhhh   when she comes    i know that she's the
e|-1-------------1------------3----------------------------------|
B|-----3-----3-----3------0------------------1-------------1-----|
G|---2---2-----2-----2------0------------0-----0-------0-----0---|
D|-0-------0-------------------------------2-----2-------2-----2-|
A|-------------------------------0--2--3------------2------------|
E|---------------------3-----------------------------------------|

  one                      makes     me want    it  haaar   -
e|-------------------------------------------------------0-------|
B|-------1-----------1-----------1------------0------------0-----|
G|---2-----2------2-----2-----2-----2------2----2-----1------1---|
D|-----3-----3------3-----3-----3-----3------3----3-----2--------|
A|--------------3------------------------3-----------------------|
E|-1------------------------1-----------------------0------------|

    der      makes me wanna   ..   stronger
e|------0------------0----------0---------0----------0----------0---|
B|--------0------1-----1----1-----1---1-----1----1-----1----1-----1-|
G|---1------1------2----------2---------2----------2----------2-----|
D|-----2------------------------------------------------------------|
A|-------------0----------------------------------------------------|
E|-0----------------------3---------2----------2----------2---------|

  still i see monsters                        still i see
e|-------0----------0----------0----------0----------0---|
B|---1-----1----1-----1----1-----1----1-----1----1-----1-|
G|-----2----------2----------2----------2----------2-----|
D|-------------------------------------------------------|
A|-------------------------------------------------------|
E|-2----------1----------1----------1----------1---------|

   monsters
e|-------0--------0--------0-|
B|---------------------------|
G|---1--------2--------1-----|
D|-----2--------2--------2---|
A|---------------------------|
E|-0--------0--------0-------|


Verse:

e|-----------------------------3---------------------------------2-|
B|----------------5------------------------------------------------|
G|----2-----2-2/6---4/2----2-----(p)0h2p0h2p0h2p0h2p0h2p0----2-----|
D|------2h4--------------------------------------------------------|
A|-0---------------------------------------------------------------|
E|-----------------------3---3-----------------------------2---2---|

e|----------------------------------------------------------------|
B|----------------------------------------------------------------|
G|(p)0h2p0h2p0h2p0h2p0h2p0----------------------------------------|
D|-----------------------------2---2---2---2---2---2----2---2---2-|
A|----------------------------------------------------------------|
E|---------------------------1---1---1---3---3---3----5---5---5---|

       Baby I know  .. here me now           cause you're fast asleep
e|-----------------------------3---------------------------------2-|
B|----------------5------------------------------------------------|
G|----2-----2-2/6---4/2----2-----(p)0h2p0h2p0h2p0h2p0h2p0----2-----|
D|------2h4--------------------------------------------------------|
A|-0---------------------------------------------------------------|
E|-----------------------3---3-----------------------------2---2---|

                      but i love you now
e|---------------------------------------------------------------|
B|---------------------------------------------------------------|
G|(p)0h2p0h2p0h2p0h2p0h2p0---------------------------------------|
D|-----------------------------2---2---2---2---2---2---2---2---2-|
A|---------------------------------------------------------------|
E|---------------------------1---1---1---3---3---3---5---5---5---|

       colors inside .. spinnin round              like a ferris wheel
e|-----------------------------3---------------------------------2-|
B|----------------5------------------------------------------------|
G|----2-----2-2/6---4/2----2-----(p)0h2p0h2p0h2p0h2p0h2p0----2-----|
D|------2h4--------------------------------------------------------|
A|-0---------------------------------------------------------------|
E|-----------------------3---3-----------------------------2---2---|

                exploding and falling to the ground
e|---------------------------------------------------------------|
B|---------------------------------------------------------------|
G|(p)0h2p0h2p0h2p0h2p0h2p0---------------------------------------|
D|-----------------------------2---2---2---2---2---2---2---2---2-|
A|---------------------------------------------------------------|
E|---------------------------1---1---1---3---3---3---5---5---5---|


Bridge:

 ooh people screaming    ..   my baby she's
e|-----------------------------------------|
B|-------2---------2----------2----------2-|
G|---2---------2----------2----------2-----|
D|-----2---------2----------2----------2---|
A|-0---------------------------------------|
E|----------4----------3----------2--------|

  dreaming
e|-------------------------------------|
B|-----------1-----------------1-------|
G|------0-------0---------0-------0----|
D|----2---2-------2-----0---0-------0--|
A|-------------------------------------|
E|-1-----------------3-----------------|

 ooh people shouting  ..  i'm just staring at the
e|-----------------------------------------|
B|-------2---------2----------2----------2-|
G|---2---------2----------2----------2-----|
D|-----2---------2----------2----------2---|
A|-0---------------------------------------|
E|----------4----------3----------2--------|

  ceiling        waiting for the feeling
e|-------------------------------------|
B|-----------1-----------------1-------|
G|------0-------0---------0-------0----|
D|----2---2-------2-----0---0-------0--|
A|-------------------------------------|
E|-1-----------------3-----------------|


Chorus:

  oooooohh-oooooooooohhhhhh   when she comes    i know that she's the
e|-1-------------1------------3----------------------------------|
B|-----3-----3-----3------0------------------1-------------1-----|
G|---2---2-----2-----2------0------------0-----0-------0-----0---|
D|-0-------0-------------------------------2-----2-------2-----2-|
A|-------------------------------0--2--3------------2------------|
E|---------------------3-----------------------------------------|

  one                      makes     me want    it  haaar   -
e|-------------------------------------------------------0-------|
B|-------1-----------1-----------1------------0------------0-----|
G|---2-----2------2-----2-----2-----2------2----2-----1------1---|
D|-----3-----3------3-----3-----3-----3------3----3-----2--------|
A|--------------3------------------------3-----------------------|
E|-1------------------------1-----------------------0------------|

    der      makes me wanna   ..   stronger
e|------0------------0----------0---------0----------0----------0---|
B|--------0------1-----1----1-----1---1-----1----1-----1----1-----1-|
G|---1------1------2----------2---------2----------2----------2-----|
D|-----2------------------------------------------------------------|
A|-------------0----------------------------------------------------|
E|-0----------------------3---------2----------2----------2---------|

  still i see monsters                        still i see
e|-------0----------0----------0----------0----------0---|
B|---1-----1----1-----1----1-----1----1-----1----1-----1-|
G|-----2----------2----------2----------2----------2-----|
D|-------------------------------------------------------|
A|-------------------------------------------------------|
E|-2----------1----------1----------1----------1---------|

   monsters
e|-------0--------0--------0-|
B|---------------------------|
G|---1--------2--------1-----|
D|-----2--------2--------2---|
A|---------------------------|
E|-0--------0--------0-------|


Outro:

e|-------0--------------0----------0--------------0----|
B|---1-----1p0-1----1-----1----1-----1p0-1----1-----1--|
G|-----2--------------2----------2--------------2------|
D|-----------------------------------------------------|
A|-0---------------------------------------------------|
E|----------------3----------2--------------1----------|


e|-------0--------------0----------0--------------0----|
B|---1-----1p0-1----1-----1----1-----1p0-1----1-----1--|
G|-----2--------------2----------2--------------2------|
D|-----------------------------------------------------|
A|-0---------------------------------------------------|
E|----------------3----------2--------------1----------|


e|-------0--------------0----------0--------------0----|
B|---1-----1p0-1----1-----1----1-----1p0-1----1-----1--|
G|-----2--------------2----------2--------------2------|
D|-----------------------------------------------------|
A|-0---------------------------------------------------|
E|----------------3----------2--------------1----------|


e|-------0--------------0----------0--------------0----|
B|---1-----1p0-1----1-----1----1-----1p0-1----1-----1--|
G|-----2--------------2----------2--------------2------|
D|-----------------------------------------------------|
A|-0---------------------------------------------------|
E|----------------3----------2--------------1----------|
comments
print report bad tab
4 comments total. Showing first comments.
+1 reply
lozza69 16 wrote on March 12 2009, 06:35 am

I looked at the other tab thats five starred and it's not tabbed out for the finger picking so 'Thank You' very much for this!! 5*'s from me!!

0 reply
phlikone 3,461 wrote on November 18 2009, 04:39 pm

Intro and verse:

A G/A D/F#
e|---------------------------------3--------3-------3-------2-------2-------2--|
B|------------------5----------0--------0-------0-------0-------0-------0------|
G|----------2-(4/6)---6-(4/2)----2--------2-------2-------2-------2-------2----|
D|------2h4--------------------------------------------------------------------|
A|-0---------------------------------------------------------------------------|
E|----------------------------3-------3--------3-------2-------2-------2-------|

F* G*
e|--------------------------|
B|--------------------------|
G|-------0-----------0------|
D|---2-------2---2-------2--|
A|--------------------------|
E|-1---1---1---3---3---3----|

Outro:

e|-------0--------|-------0--------|-------0--------|-------0-------|
B|---------p1---1-|---------1----1-|---------p1---1-|---------1---1-|
G|---0------------|---0------------|---0------------|---0-----------| (X4)
D|-----2------0---|-----2-----0----|-----2------0---|-----2-----0---|
A|-0--------------|----------------|----------------|---------------|
E|----------------|-3--------------|-2--------------|-1-------------|

0 reply
piLLepaLLe 139 wrote on November 19 2009, 08:49 am

Hey phlikone,
thanks for the correction try, but its either you have a different version, or you're just wrong. i agree that its more 4/6 than 2/6 right at the beginning, but i find that kinda hard to play, as its very fast one after another. the song's anyway played on two guitars i believe and if you want just one as indicated on some positions in your tab, than you'd have to leave out the 2 before the 4/6 anyway. the G/A part is simply wrong, its actually something like

e|-3--------
B|-----4----
G|---2------
D|----------
A|----------
E|-------3--

but i think it sounds good the way it is..

I want to post or [tab]
guest
You may want to rate the tab now too:
select rating
Please do not post tabs as comments. Select "correction" instead!