Oops, an error
Loading. Please wait.

If I Am A Stranger ukulele

586 views 1 this week
no commentswrite comment
1 2 3 4 5
3 more votes to show rating
add to favorites
×
Save as Personal and add changes to this tab that will be seen only by you. Learn more ›
×
You can save this tab as Personal to edit and correct it or add notes. All changes will be seen only by you. Learn more »
launch autoscroll
font size
0
reset
transpose
0
reset
simplify chords
display chords
guitar tuner
edit
Autoscroll
slow
fast
+/-
esc
set tempo
stop
Strumming
There is no strumming pattern for this song yet. and get +5 IQ
                      "If I Am A Stranger"
                           Ryan Adams

   C6 = (3x0000)
Dadd4 = (x54035)
  Am7 = (022030)
Fadd9 = (x32033)


 [[CAPO 3:D FRET!]]


   Am         C6            Fmaj7
|------0--------------------------------------------------------------|
|--3s5---5-3-0--------------------------------------------------------|
|--0------------2-4--4p2-0---2---4---0-------0---2--4---0-------------|
|------------------------------------2---0h2------------2-------------|
|--------------------------3---3---3---3-------3------3----3-2-0------|
|----------------------------------------------------------------3-0--|

Guitar2:
|-----0-------0--------------0----------------------------------------|
|-----0-------0--------------0----------------------------------------|
|-----0-------0----------0---0----------------------------------------|
|-2---2-------0---0--0h2-----2----------------------------------------|
|-2---2-------x--------------3-----------------------------3-2-0------|
|-0---0-------3--------------------------------------------------3-0--|


[Verse]
 Am                         C6 
For all the hours here that move too slow
                 F
There's all this letting go, that don't pass
Am                        C6
If all this love is real, how will we know?
         F
If we're only scared of losing it, how will it last?


[Chorus]
Dadd4     Am                 F  C
If I am a stranger now to you
       F      C          F      Dadd4
I will always be, I will always be
Dadd4             Am                  F C
Stronger now then me, stronger then you
              F      C
Our love will always be
          F      Dadd4                          F
And if we let it go, I will try to be there for you

If I can, what if I can't?


C Am7 Fadd9 C   C Am7 Fadd9


[Verse]
Today is yesterday when you don't know
How to rebuild the walls that someone has knocked down
To tell the truth it's hard enough about a lover
Who you want to hide your darkness from
So they won't let you down

[Chorus]
If I am a stranger now to you
I will always be, I will always be
Stronger now then me, stronger then you
Our love will always be
                     Dadd4                          F
And if we let it go, I will try to be there for you
                            Dadd4
I will try and be there for you

If I can, what if I can't?


C Am7 Fadd9 C   C Am7 Fadd9    C Am7 Fadd9 C   C Am7 Fadd9  

                                                    ...second time:
|----2-----0-----2-----0--------3-----5-----5-------|-5-----5---5-5b--|
|------3-----3-----3-----3--------3-----3-----3-----|---3-----3-------|
|--4-----4-----4-----4-----4...-----4-----4-----4...|-----4-----------|
|---------------------------------------------------|-----------------|
|---------------------------------------------------|-----------------|
|---------------------------------------------------|-----------------|



[Verse]
For all the hours here that move to slow
                                 |---------------------------0--------|
                                 |---------------------------0--------|
                                 |--------------0-----0---0--0--------|
                                 |------------------------2--2--------|
                                 |------------3---3-2---3-2--2--------|
                                 |------------------------0--0--------|
There's all this letting go, that won't pass
If all this love is real, how will we know?
And if were only scared of losing it, how will it last?

[Chorus]
If I am a stranger now to you
I will always be, I will always be
Stronger now then me, stronger than you
Our love will always be
If we let it go, I will try to be there for you
I will try to be there for you
I will try to be there for you
If I can, what if I can't?


            
            
Suggest correction
Creating personal tab
Creating personal tab
You can edit any tab online and save it as your Personal.

You can edit, replace or remove any tab part or add personal notes – all changes will be seen only by you.

Personal tabs can be accessed anytime from any device, even offline.
Learn more »
Give kudos to tab author, rate the tab!
1 2 3 4 5
comments
print report bad tab
guest
Wanna post a correction for this tab? Suggest correction