Oops, an error
Loading. Please wait.

Lucky Now Chords

version 3
version 3

Whole song

Interactive

2,089 views 102 this week
no commentswrite comment
1 2 3 4 5
x 4
add to favorites
launch autoscroll
font size
0
reset
transpose
0
reset
display chords
guitar tuner
Autoscroll
slow
fast
+/-
esc
set tempo
stop
Author
Difficulty
Capo
intermediate
3rd fret
About this tab version
Full version of the song, that includes the solo. Was this info helpful? Yes No
Strumming
There is no strumming pattern for this song yet. and get +5 IQ
[Intro]
C F C G C

[Verse]
C                        F        C
I don't remember were we wild and young
C                   G    C
All that faded into memory
C                    F       C
I feel like somebody I don't know
C                    G       C
Are we really who we used to be
C                 G   C
Am I really who I was

C F C C G C

[Chorus]
F                        Am
The lights will draw you in
        F                   C    G
And the dark will bring you down
        F                     Am
And the night will break your heart
                   G
But only if you're lucky now

[Verse 2]
C                         F         C
Waiting outside while you find your keys
C                         G          C
Like bags of trash in the blackening snow
C                F         C
City of neon and toes that freeze
C                     G          C
We've got nothing and nowhere to go
C                     G      C
We've got nothing and nowhere

[Chorus]
F                        Am
The lights will draw you in
        F                   C    G
And the dark will bring you down
        F                     Am
And the night will break your heart
                   G
But only if you're lucky now

F                        Am
The lights will draw you in
        F                   C    G
And the dark will bring you down
        F                     Am
And the night will break your heart
                   G
But only if you're lucky now

[Instrumental]
[solo]
F G Am
F G Am
F G Am
G   (x2)

C F C C G C

[Outro]
C                        F        C
I don't remember were we wild and young
C                   G    C
All that faded into memory
C                    F       C
I feel like somebody I don't know
C                    G       C
Are we really who we used to be
C                 G   C
Am I really who I was

[Solo]
e|---------------------------------------------------------------------------|
B|--11-9-8-------------------------------------------------------------------|
G|---------10-8-7---------8-7-8-------------8-7-8-------------8--------------|
D|----------------10-8/10-------8/10-8/10-8-------8/10-8/10-8----------------|
A|---------------------------------------------------------------------------|
E|---------------------------------------------------------------------------|

e|---------------------------------------------------------------------------|
B|--11-9-8-------------------------------------------------------------------|
G|---------10-8-7-8/10--------8-7-8--------8-7-8--------8--------------------|
D|---------------------10/8-8-------8/10-8-------8/10-8----------------------|
A|---------------------------------------------------------------------------|
E|---------------------------------------------------------------------------|

e|---------------------------------------------------------------------------|
B|--11-9-8-------------------------------------------------------------------|
G|---------10-8-7-8--------8-7-8--------8-7-8--------8-----------------------|
D|------------------8/10-8-------8/10-8-------8/10-8-------------------------|
A|---------------------------------------------------------------------------|
E|---------------------------------------------------------------------------|

e|---------------------------------------------------------------------------|
B|--11-9-8-------------------------------------------------------------------|
G|---------10-8-7-8/10------8-7----------------------------------------------|
D|---------------------10-8--------------------------------------------------|
A|---------------------------------------------------------------------------|
E|---------------------------------------------------------------------------|

************************************

| /  Slide up

************************************

This is my first tab so it may not be 100%, but I got as close as to what I could hear from the solo! 
listen to the song to get the timing
Suggest correction
comments
print report bad tab
guest
You may want to rate the tab now too:
select rating
Wanna post a correction for this tab? Suggest correction