Oops, an error
Loading. Please wait.

Magnolia Mountain Tab

53,509 views 18 this week
2 commentsread comments
1 2 3 4 5
x 7
add to favorites
launch autoscroll
font size
0
reset
how to read this tab
guitar tuner
Autoscroll
slow
fast
+/-
esc
set tempo
stop
Help us to improve Ultimate-Guitar.com Take our survey!
×
Author
Magnolia Mountain
By Ryan Adams and the Cardinals

Standard tuning
(maybe a capo ii, but i don't think so)

[Intro]

e|---0------0-----0-------0-----0----------------------------------|
B|b---5----4-4---2-2-----0-0-----0---------------------------------|
G|-6----4-----2-----2-1-------2---2-1-1-2/4---------2-2-1----------|
D|--------------------------4---------------1--2----2-2-2----------|
A|---------------------------------------------2h4--2-2-2-------2--|
E|--------------------------------------------------------0-2/4----|

[Verse]

Bm                D                A                  E
I wanna go to magnolia mountain and lay my weary head down
            G             D                 A  Asus A
down on the rocks on the mountain my savior made

(repeat pattern for verse)

[Chorus]

C#m   G#m  D          A
Lie to me  Sing me a song
C#m        G#m           F#
Sing me a song until the morning comes
       C#m   G#m               D          A
If the morning comes, will you lie to me
           C#m               G#m
Will you take me to your bed Will you lay me down
         F#
Till I'm heavy like the rocks on the riverbed
                   Esus E Riff
That my savior made


[Riff]

e|---------|
B|---------|
G|---------|
D|---------|
A|-------2-|
E|-0-2/4---|

the solo sounds like it is the same as the intro.  different kind of effect, same notes. 
to doug for the help on this one.



************************************

| b  Bend
| /  Slide up
| h  Hammer-on

************************************
Suggest correction
comments
print report bad tab
2 comments total.
0 reply
DrewRoth 316 Aug 12, 2005 12:00 AM

no capo. sorry for the confusion.

0 reply
BUDDA 70 Aug 23, 2007 02:58 AM

spot on. great song. 5 stars.

guest
You may want to rate the tab now too:
select rating
Wanna post a correction for this tab? Suggest correction