Oops, an error
Loading. Please wait.

Nuclear chords

version 2
version 2

Whole song

1,277 views 1 this week
3 commentsread comments
1 2 3 4 5
1 last vote to show rating
add to favorites
×
Save as Personal and add changes to this tab that will be seen only by you. Learn more ›
×
You can save this tab as Personal to edit and correct it or add notes. All changes will be seen only by you. Learn more »
launch autoscroll
font size
0
reset
transpose
0
reset
simplify chords
display chords
guitar tuner
edit
Autoscroll
slow
fast
+/-
esc
set tempo
stop
Strumming
There is no strumming pattern for this song yet. and get +5 IQ
---------------------------------------------------------------------------
                         NUCLEAR - Ryan Adams
---------------------------------------------------------------------------

Artist: Ryan Adams
Song: Nuclear
Album: Demolition (2002)

Tabbed by: crimson-dync (soldync@yahoo.com.ar)
Tuning: Standard


   INTRO
G Em C C (x2)

G Em C C (x4)

   VERSE 1
G Em C C
This is where the summer ends
In a flash of pure destruction, no one wins
Go nuclear. Nuclear.
The violets in my eyelids goin' red

   CHORUS 1
C C C C
G G G G
Sentimental geek
Shut up and go to sleep

   VERSE 2
The calm, the beach and the remains
Of the bathing suits and Porsches all in flames
Go nuclear. Nuclear.
When I saw her and the Yankees lost to the Braves

   CHORUS 2
Sentimental geek
Sentimental geek
Sentimental geek
Shut up and go to sleep

   OUTRO
Em Em C  C
G  G  D  D
Give me an answer...

   END
C C C C


------------------------------------------------

riff 1 - INTRO
   G   Em C C     G   Em    C  C
e|--------------|-7-~--------------|
B|-5-~------7-8/|-------7/5-~------|
G|--------------|----------------7-| (x2)
D|--------------|------------------|
A|--------------|------------------|
E|--------------|------------------|

riff 2 - CHORUS
   G      G           G     G      C
e|--------------10-~--12-~--10---|-----------|
B|--------10h12------------------|-13--------|
G|----12-------------------------|-----------|
D|-------------------------------|-----------|
A|-------------------------------|-----------|
E|-------------------------------|-----------|

------------------------------------------------

CHORDS
G   320033
Em  022000   (Em7    022033)
C   x32010   (Cadd9  x32033)   
D   xx0232

            
            
Suggest correction
Creating personal tab
Creating personal tab
You can edit any tab online and save it as your Personal.

You can edit, replace or remove any tab part or add personal notes – all changes will be seen only by you.

Personal tabs can be accessed anytime from any device, even offline.
Learn more »
Give kudos to tab author, rate the tab!
1 2 3 4 5
comments
print report bad tab
3 comments total.
0 reply
natemiklas1 21 Mar 03, 2017 07:39 PM

its cadd9 and em7. Not c and em.

guest
You may want to rate the tab now too:
select rating
Wanna post a correction for this tab? Suggest correction