Oops, an error
Loading. Please wait.

Shadowlands Tab

61 views 6 this week
no commentswrite comment
1 2 3 4 5
3 more votes to show rating
add to favorites
launch autoscroll
font size
0
reset
how to read this tab
guitar tuner
Autoscroll
slow
fast
+/-
esc
set tempo
stop
Help us to improve Ultimate-Guitar.com Take our survey!
×
Author
Difficulty
intermediate
Taken from ut4ever8 on DMBtabs.com - wanted to share this as I've searched for years...


Lyrics:


[Verse 1]

God, please bring the rain
Yeah, and bring it soon
Let it flood right through the houses
Into Judy's room
With a father on amphetamines
Her mother hides the pearls
Reach out into the darkness
And find my little girl


[Verse 2]

'Cause she's angry like a salesman
That couldn't make a sale
Threw her wedding ring in the sewer
And damned them all to hell
Please lead her to the mountain
That you fashioned out of sand
While the roaches climb the walls
From the hotel where he calls


[Verse 3]

Most people never find a love
Most people never find a love
Sometimes you just can be a man
Sometimes you just can be a man
When your living in the darkness
Of the shadowlands
The shadowlands
The shadowlands


[Solo]

3:36
   F#  C#  B                F#  C#   B              
e|------------------------|-------------------------|
B|------------------------|------------7--------7-7-|
G|------------------------|--6--6--8-6--(6)-----6h8-|
D|----------------4h6-6--4|/8-----------------------|
A|-------------4h6--------|-------------------------|
E|------------------------|-------------------------|

 3:45
   F#  C#      B              F#  C#      B         
e|-------------------------|------------------------|
B|-7-----------------------|------------------------|
G|-8---6-------------------|------------------------|
D|------8\6-4--6--4--------|----4--/8-6-4---(6)-4---|
A|-------------------------|-4h6--------------------|
E|-------------------------|------------------------|

 3:57
   F#    C#      B                    F#  C#             B                              
e|----------------------------------|---------------------------------------------------|
B|-------------7/9-7-7---------11/14|-14--11h14p11--------------------------------11/14-|
G|-----------6-6/8-6------11h13-----|-------------13-11-11h13----------------11h13------|
D|-----4-/8-6-----------------------|------------------------11h13-11-------------------|
A|-4-6------------------------------|---------------------------------------------------|
E|----------------------------------|---------------------------------------------------|

 4:09
   F#      C#       B                 F#            C#      B#                          
e|----11----------------------------|---------------------------------------------------|
B|-14---14-11-----------------------|-14b16r14-11---11-16r14---11------11---------------|
G|------------13-11-13--11-11-------|------------13--------------13-11---13-----11------|
D|----------------------------------|-----------------------------------------11--13-11-|
A|----------------------------------|---------------------------------------------------|
E|----------------------------------|---------------------------------------------------|

 4:20
   F#             C#       B          F#    C#        B                
e|----------------------------------|----------------------------------|
B|----------------------------------|-----------------------------12---|
G|------11--------------------------|-11--------------------------13---|
D|------11-11h13--------------------|-11h13-11-------------------------|
A|-11h13----------11h13-11\9--------|---------13\11-9-11---9-----------|
E|----------------------------------|----------------------------------|

 4:32
   F#       C#       B                               F#   C#    B              
e|-------------------------------------------------|---------------------------|
B|-12-11-11-11----------------------------16-16\14-|-14-14---------------------|
G|-13-11-11----13-13-13h15p13p11-11--11/13---13\11-|-11------------------------|
D|-------------------------------------------------|--------------6/8--6---6-4-|
A|-------------------------------------------------|---------------------6-----|
E|-------------------------------------------------|---------------------------|

 4:44
   F#   C#   B                        F#    C#          B              
e|----------------------------------|-------------------------------11-|
B|----------------------------------|-------------------------------9--|
G|--------------------13/15-13-11---|----------------------------------|
D|-4----------------11--------------|-------11h13-11-------------------|
A|-------------11-13----------------|-------------11h13-11\9-----------|
E|----------------------------------|-----------------------9h11-------|

 4:56                                                          Fade Out..
   F#       C#      B                       F#  C#      B              
e|-11\9-9\6-6\4-4p2-2h4--------------------|---------------------------|
B|-9-\7-7\4-4\2-2-2-----2h4----------------|--------------------6------|
G|-----------------------------------------|-----------------6b8-8r6---|
D|--------------------------8\6-b8-4-------|----4--/8-6-4--------------|
A|-----------------------------------6-4---|-4h6-----------------------|
E|-----------------------------------------|---------------------------|

************************************

| (n)  Ghost note
| h    Hammer-on
| p    Pull-off
| r    Release
| b    Bend
| /    Slide up
| \    Slide down

************************************
Suggest correction
Give kudos to tab author, rate the tab!
1 2 3 4 5
comments
print report bad tab
guest
You may want to rate the tab now too:
select rating
Wanna post a correction for this tab? Suggest correction