Oops, an error
Loading. Please wait.

Shes Lost Total Control Tab

1,037 views 1 this week
no commentswrite comment
1 2 3 4 5
please rate
add to favorites
launch autoscroll
font size
0
reset
how to read this tab
guitar tuner
Autoscroll
slow
fast
+/-
esc
set tempo
stop
Help us to improve Ultimate-Guitar.com Take our survey!
×
Author
She’s Lost Total Control
Ryan Adams
Rock & Roll
Tabbed by: Howard
Email: witmachine@yahoo.com

Tuning: Standard

Abmaj7
X07654

A
X02220


Riff 1
e|-----------------------------------------------------|
B|-----------------------------------------------------|
G|-----------------------------------------------------|
D|--2---4---6---7---6---4---2---4----------------------|
A|----0---0---0---0---0---0---0---0--------------------|
E|-----------------------------------------------------|

Riff 2
e|-----------------------------------------------------|
B|-----------------------------------------------------|
G|-7-----------11------------14-----------13-----------|
D|---(8 times)----(8 times)-----(8 times)----(8 times)-|
A|-5-----------9-------------12-----------11-----------|
E|-----------------------------------------------------|



Abmaj7
So much for the days of glory
					    Abmaj7 A Abmaj7 A
It's not like your idols died and are holy now
Abmaj7
You cross the street and count to ten
				    Abmaj7 A            Abmaj7 A
And everyone that mattered went to bed, or maybe they died

Riff 1
Welcome home
     Riff 1
Miss So Unknown
        Riff 2
Bet you want it back, they all want it back
	       Abmaj7
But you can't have it, You've lost total control


Abmaj7
The sun, it lights the blades of grass
					    Abmaj7 A		   Abmaj7 A
It's not like she knows the difference or cares, she's stupid and cold
Abmaj7
Somewhere in the waves of doubt
					    Abmaj7 A		Abmaj7 A
It's not like she swam awhile, then faded out, so stupid and calm

Riff 1
Welcome home
     Riff 1
Miss So Unknown
       Riff 2
Do you want it back? Do you want it back?
Riff 1
Welcome home
     Riff 1
Miss So Unknown
	  Riff 2
They all want it back, when they want it all back
	      Abmaj7 A
But you can't have it, You've lost control


The last bit is just messing around on the A string and a lot of D9 (xxx555) and E9 (xxx777).


Please comment, fix and rate!
Suggest correction
Give kudos to tab author, rate the tab!
1 2 3 4 5
comments
print report bad tab
guest
You may want to rate the tab now too:
select rating
Wanna post a correction for this tab? Suggest correction