Oops, an error
Loading. Please wait.

When The Stars Go Blue Tab

version 1
version 1

Whole song

Interactive

5,803 views 24 this week
no commentswrite comment
1 2 3 4 5
accurate
x 3
add to favorites
launch autoscroll
font size
0
reset
how to read this tab
guitar tuner
Autoscroll
slow
fast
+/-
esc
set tempo
stop
Help us to improve Ultimate-Guitar.com Take our survey!
×
Author
Difficulty
Capo
novice
3rd fret
Capo 3

Verse:
Am                 C       G      D
Dancin' where the stars go blue
Dancin' where the evening fell
Dancin' in your wooden shoes
In a wedding gown

Dancing out on 7th street,
Dancing through the underground,
Dancing with a marianette, are you happy now

Pre-Chorus:
C            G              D
Where do you go when you're lonely?
Where do you go when you're blue?
Where do you go when you're lonely?
C     
 I'll follow you

Chorus:
                  G       D     Am
When the stars go blue...   ...
When the stars go blue...   ...
When the stars go blue...   ...
         C
Stars go blue

Am C G D x2

OR
E ||------------------------------------------------|
B ||-------------3----------------------------------|
G ||--2--2--4--5---5--4--0--------------------------|
D ||-----------------------(4)----------------------|      x2
A ||------------------------------------------------|
E ||------------------------------------------------|

 Verse 2:
Am                  C     G     D
Laughing with your pretty mouth,
Laughing with your broken eyes,
Laughing with your lovers talk
In a lullabye

Pre-Chorus:
C            G              D
Where do you go when you're lonely?
Where do you go when you're blue?
Where do you go when you're lonely?
C     
 I'll follow you

Chorus:
                  G       D     Am
When the stars go blue...   ...
When the stars go blue...   ...
When the stars go blue...   ...
         C
Stars go blue

Final Chorus:
         G       D     Am
Stars go blue...  ...
Stars go blue...  ...
Stars go blue...  ...
         C
Stars go blue

Outro:
Am C G D x3
Am C G

OR

E ||-------------------------------------------------------|
B ||-----------3-------------------------------------------|
G ||--2--5--6-----6--5--0----------------------------------|
D ||-----------------------4-------------------------------|      x4
A ||-------------------------------------------------------|
E ||-------------------------------------------------------|

End the song with a G chord
Suggest correction
Give kudos to tab author, rate the tab!
1 2 3 4 5
comments
print report bad tab
guest
You may want to rate the tab now too:
select rating
Wanna post a correction for this tab? Suggest correction