Oops, an error
Loading. Please wait.

Boracho Station chords

82 views 1 this week
no commentswrite comment
1 2 3 4 5
3 more votes to show rating
add to favorites
×
Save as Personal and add changes to this tab that will be seen only by you. Learn more ›
×
You can save this tab as Personal to edit and correct it or add notes. All changes will be seen only by you. Learn more »
launch autoscroll
font size
0
reset
transpose
0
reset
simplify chords
display chords
guitar tuner
edit
Autoscroll
slow
fast
+/-
esc
set tempo
stop
Strumming
There is no strumming pattern for this song yet. and get +5 IQ
[Chords / Strum]

        Gm         Csus2        D7          Gm
e|------------------------------------------------|
B|-----3--3--------4--4--------3--3--------3--3---|
G|-----3--3--------5--5--------5--5--------3--3---|
D|-----5--5--------5--5--------4--4--------5--5---|
A|--------------3---------------------------------|
D|--5-----------------------0-----------5---------|


[Intro]
e|---------------------------------------|
B|---------------------------------------|
G|---------------------------------------|
D|---------------0-1-0h1p0h1-----0h1/5---|
A|---------0-1-3-------------------------|
D|-0-1-3-5-------------------------------|

Gm Csus2 D7 Gm

[Verse]
Gm    Csus2   D7      Gm
El ondas cielo y toca la sierra
Gm         Csus2      D7          Gm
Trabajando amigos asi entiendo le pierra
Gm       Csus2     D7       Gm
Vaqueros montamos, caballos borachos
Gm          Csus2      D7
Esperando a siente del sol
D7          Gm
Paro en Mexico

[Chorus]
Gm Csus2 D7 Gm

[Verse]
Gm            Csus2      D7         Gm
Buzzards they circle old crosses on hills
Gm               Csus2         D7       Gm
The heart of the desert pounds under my heels
Gm           Csus2   D7    Gm
And I hear a tale of aztec gold
Gm           Csus2   D7
Lyin' in the hills
D7         Gm
Of old Mexico

[Chorus]
Gm Csus2 D7 Gm

[Verse]
Gm    Csus2   D7      Gm
El ondas cielo y toca la sierra
Gm         Csus2      D7          Gm
Trabajando amigos asi entiendo le pierra
Gm       Csus2     D7       Gm
Vaqueros montamos, caballos borachos
Gm          Csus2      D7
Esperando a siente del sol
D7          Gm
al Mexico

[Outro]
Gm Csus2 D7 Gm
Suggest correction
Creating personal tab
Creating personal tab
You can edit any tab online and save it as your Personal.

You can edit, replace or remove any tab part or add personal notes – all changes will be seen only by you.

Personal tabs can be accessed anytime from any device, even offline.
Learn more »
Give kudos to tab author, rate the tab!
1 2 3 4 5
comments
print report bad tab
guest
You may want to rate the tab now too:
select rating
Wanna post a correction for this tab? Suggest correction