Oops, an error
Loading. Please wait.

Borracho Station Tab

version 1
version 1

Whole song

8,143 views 12 this week
2 commentsread comments
1 2 3 4 5
x 3
add to favorites
launch autoscroll
font size
0
reset
how to read this tab
guitar tuner
Autoscroll
slow
fast
+/-
esc
set tempo
stop
Help us to improve Ultimate-Guitar.com Take our survey!
×
Author
Difficulty
Tuning
novice
D A D G B E
-------------------------------------------------------------------------------
                             Borracho Station - Ryan Bingham
-------------------------------------------------------------------------------

Tabbed by: Pardoned

The intro is best played with improvisation. Ryan doesn't tend to play it the same way twice.

The song itself goes like this.

Tuning: Drop-D

e|---------------------------------------------------------------------------|
B|-------3--3----------4--4-----------3--3-----------------------------------|
G|-------3--3----------5--5-----------2--2-----------------------------------|
D|---------------------------------------------------------------------------|
A|-------------------3-------------------------------------------------------|
D|----5-----------------------------0----------------------------------------|

It doesn't deviate from this structure the whole way through the song.

Then at the end of the chorus bit I think this sounds good, although it's not an actual
part of the song:-

e|-------------------------------------3------------3------------------------|
B|---------3--3-----3-3-----3--3--------------3-----3------------------------|
G|---------2--2-----2-3-----2--2-----------2-----2--2------------------------|
D|-------------------------------------0------------0------------------------|
A|---------------------------------------------------------------------------|
D|------0---------0-------0--------------------------------------------------|


Lyrics

onda cielo y toca la sierra

trabajando amigos acentiendo le pierra

vaqueros montamos caballos borracho

esperando aciente del sol

la mexico


buzzards they circle

old crosses on hills

the heart of the desert

pounds under my heels

and i hear a tale

of aztec gold

lyin in the hills

of old mexico


Hope you enjoy.

Any problems with it, or things you think would be better, let me know and i'll add them in.

Cheers!
Suggest correction
Give kudos to tab author, rate the tab!
1 2 3 4 5
comments
print report bad tab
2 comments total.
0 reply
fritsvds 123 Sep 21, 2013 11:10 AM

This is not a 100%, since the intro starts at a low D note, hence the tuning must be drop-D. Also, the C chord is: X3X54X

That being said, if you don't want to play the intro and you don't care to much about the C chord, this is a pretty useful tab for you :)

0 reply
sambell38 10 Mar 21, 2014 10:16 PM

Also instead of hitting the open D note, hit the octave below it on the drop-D. Other than that, good work :)

guest
You may want to rate the tab now too:
select rating
Wanna post a correction for this tab? Suggest correction