Oops, an error
Loading. Please wait.

Tell My Mother I Miss Her So Tab

6,405 views 15 this week
3 commentsread comments
1 2 3 4 5
excellent!
x 6
add to favorites
launch autoscroll
font size
0
reset
how to read this tab
guitar tuner
Autoscroll
slow
fast
+/-
esc
set tempo
stop
Help us to improve Ultimate-Guitar.com Take our survey!
×
Contributor
Capo
5th fret
Tell Mother I Miss Her So-- Ryan Bingham



The Grace notes im going to list here are played while strumming, and you can decide
your own arrangement on how to do it. Or watch a video of him.

Album version: Capo 5



Intro: Your going to be strumming a C (see below)



       Repeat as many times as you like
E-3---------3--------3--------------------------------------------------|
B-3---------3--------3--------------------------------------------------|
G—0----0h2--0--------0----------0---------------------------------------|
D-2-------------0h2-------0h2------2---0--------------------------------|
A-3---------------------------------------------------------------------|
E-X---------------------------------------------------------------------|

Then:

E-3---------3--------3--------------------------------------------------|
B-3---------3--------3--------------------------------------------------|
G—0----0h2--2--------0--------------------------------------------------|
D-2-------------0h2-------0h2----0--------------------------------------|
A-3--------------------------------2------------------------------------|
E-X----------------------------------3----------------------------------|

Verses: Repeat: Pattern goes through once per two lines

Be at those notes at the beginning of the words listed:


       Take...  Voodoo...       Spell  Me...             Young (man free)
E-3---------3--------3--------------------------------------------------|
B-3---------3--------3--------------------------------------------------|
G—0----0h2--2--------0----------0---------------------------------------|
D-0-------------0h2-------0h2------2---0------------0h2--0--------------|
A-2---------------------------------------------------------2-----------|
E-3--------------------------------------------------------------3------|



On the chorus your just going to play these chords:
     C         G       Em
E----3---------3--------3--------------------------------------------------|
B----3---------3--------3--------------------------------------------------|
G—---0---------0--------0--------------------------------------------------|
D----2---------0--------2--------------------------------------------------|
A----3---------2--------2--------------------------------------------------|
E----X---------3--------0--------------------------------------------------|




Take me to see the voodoo queen,
Let her put a spell on me,
A little bit of change will ease my pain,
Gonna set a young man free.



Chorus:
       C         G            C       G
Cause I've been down through your hometown
     C     G          C      G
And all across your distant land.
      C         G    C              G
One things for sure, honey I'll be gone,
     Em           C       G
Tell my mother I miss her so
C             G
On and on and on



Take me to France and watch me dance,
Let me drink that wine,
Spinning around a dark haired girl,
Having us a good ol' time.


Chorus: repeat


When you can the medicine man,
Will let a feather set me free,
Out on the range outrunning them trains,
You're never gonna see me leave

Chorus: repeat


I really hope you can understand that!
Please Let me know what you think
Suggest correction What's this?
You can suggest a correction to this tab. Community and Mods will review your correction and vote to approve or reject it.
comments
print report bad tab
3 comments total.
0 reply
fitzpal01 52 wrote on February 16 2012, 09:11 am

Capo 0n 5th fret

0 reply
dontletgo94 881 wrote on February 25 2012, 12:14 pm

I put that that at the top

0 reply
fendvillag59 1,264 wrote on March 29 2013, 02:42 am

This tab is absolutely 100% correct

I want to post or [tab]
guest
You may want to rate the tab now too:
select rating
Please do not post tabs as comments. Select "correction" instead!