Oops, an error
Loading. Please wait.

Shine On tab

version 4
version 4

Whole song

629 views 1 this week
no commentswrite comment
1 2 3 4 5
3 more votes to show rating
add to favorites
×
Save as Personal and add changes to this tab that will be seen only by you. Learn more ›
×
You can save this tab as Personal to edit and correct it or add notes. All changes will be seen only by you. Learn more »
launch autoscroll
font size
0
reset
how to read this tab
guitar tuner
edit
Autoscroll
slow
fast
+/-
esc
set tempo
stop
Author
Unregistered
Title:  Shine On
Artist: Ryan Cabrera
Album:  You Stand Watching
Tuning: Standard (If Ryan tunes down for this song, I guess you can just make adjustments)

Intro

E |----------------------------------------44-------------------------------|
B |--------------------------------------6----------------------------------|
G |------------------------------------1------------------------------------|
D |-------8-6—------11-10----6-------31-------------------------------------|
A |6\---------66------------66-----44---4-3---------------------------------|
E |---/6----------6-------------2-------------------------------------------|

E |-------------------------------------------------------------------------|
B |-------------------------------------------------------------------------|
G |---------------------------------1-5-------------------------------------|
D |----8-6—66----11-10----6-------31----7-----------------------------------|
A |--------66------------66-----44----6-------------------------------------|
E |/6----------6-------------2-------4-5------------------------------------|

Verse x2

E |-------------------------------------44----------------------------------|
B |-----------------------------------6-------------------------------------|
G |---------------------------------1---------------------------------------|
D |----8-6—------11-10----6-------31----------------------------------------|
A |--------66------------66-----44---4-3------------------------------------|
E |/6-------6----------------2----------------------------------------------|

E |-------------------------------------------------------------------------|
B |-------------------------------------------------------------------------|
G |---------------------------------1-5-------------------------------------|
D |----8-6—66----11-10----6-------31----7-----------------------------------|
A |--------66------------66-----44----6-------------------------------------|
E |/6----------6-------------2-------4-5------------------------------------|

Pre-Chorus:

E |-------------------------------------------------------------------------|
B |-------------------------------------------------------------------------|
G |-----------------------------------------------5---5---5---5-------------|
D |8-8-x---6-6-x---4-4-x---6-6--7-8-8-x---7-7-x---6---6---6---6-------------|
A |8-8-x---6-6-x---4-4-x---6-6--7-8-8-x---7-7-x---6---6---6---6-------------|
E |6-6-x---4-4-x---2-2-x---4-4--5-6-6-x---5-5-x---4---4---4---4-------------|

Chorus:
   C#        G#          F#
E |-------------------------------------------------------------------------|
B |-------------------------------------------------------------------------|
G |6---------5-----------3--------------------------------------------------|
D |6---------6-----------4--------------------------------------------------|
A |4---------6-----------4--------------------------------------------------|
E |4---------4-----------2--------------------------------------------------|
   Shine     on you were made to 

   C#        G#          F#
E |-------------------------------------------------------------------------|
B |-------------------------------------------------------------------------|
G |6---------5-----------3--------------------------------------------------|
D |6---------6-----------4--------------------------------------------------|
A |4---------6-----------4--------------------------------------------------|
E |4---------4-----------2--------------------------------------------------|
   shine     on and you  know I love you

       C#                 G#
E |-------------------------------------------------------------------------|
B |-------------------------------------------------------------------------|
G |----6------------------5-------------------------------------------------|
D |----6------------------6-------------------------------------------------|
A |----4------------------6-------------------------------------------------|
E |----4------------------4-------------------------------------------------|
   and even if we can or cant be friends

        F#                    A#m
E |-------------------------------------------------------------------------|
B |-------------------------------------------------------------------------|
G |-----3---------------------6---------------------------------------------|
D |-----4---------------------8---------------------------------------------|
A |-----4---------------------8---------------------------------------------|
E |-----2---------------------6---------------------------------------------|
   I'll be with you until the very end 

      C#        G#          F#
E |-------------------------------------------------------------------------|
B |-------------------------------------------------------------------------|
G |---6---------5-----------3-----------------------------------------------|
D |---6---------6-----------4-----------------------------------------------|
A |---4---------6-----------4-----------------------------------------------|
E |---4---------4-----------2-----------------------------------------------|
  so  Shine     on You were made to



E |-------------------------------------------------------------------------|
B |-------------------------------------------------------------------------|
G |---------------------------------1--3--2---------------------------------|
D |----8-6—------11-10----6-------31--4-------------------------------------|
A |------66------------66-----44--------------------------------------------|
E |/6----------6-------------2-------2---4----------------------------------|

Verse x2

E |-------------------------------------44----------------------------------|
B |-----------------------------------6-------------------------------------|
G |---------------------------------1---------------------------------------|
D |----8-6—------11-10----6-------31----------------------------------------|
A |--------66------------66-----44---4-3------------------------------------|
E |/6-------6----------------2----------------------------------------------|

E |-------------------------------------------------------------------------|
B |-------------------------------------------------------------------------|
G |---------------------------------1-5-------------------------------------|
D |----8-6—66----11-10----6-------31----7-----------------------------------|
A |--------66------------66-----44----6-------------------------------------|
E |/6----------6-------------2-------4-5------------------------------------|


Pre-Chorus:

E |-------------------------------------------------------------------------|
B |-------------------------------------------------------------------------|
G |-----------------------------------------------5---5---5---5-------------|
D |8-8-x---6-6-x---4-4-x---6-6--7-8-8-x---7-7-x---6---6---6---6-------------|
A |8-8-x---6-6-x---4-4-x---6-6--7-8-8-x---7-7-x---6---6---6---6-------------|
E |6-6-x---4-4-x---2-2-x---4-4--5-6-6-x---5-5-x---4---4---4---4-------------|

Chorus:
   C#        G#          F#
E |-------------------------------------------------------------------------|
B |-------------------------------------------------------------------------|
G |6---------5-----------3--------------------------------------------------|
D |6---------6-----------4--------------------------------------------------|
A |4---------6-----------4--------------------------------------------------|
E |4---------4-----------2--------------------------------------------------|
   Shine     on you were made to 

   C#        G#          F#
E |-------------------------------------------------------------------------|
B |-------------------------------------------------------------------------|
G |6---------5-----------3--------------------------------------------------|
D |6---------6-----------4--------------------------------------------------|
A |4---------6-----------4--------------------------------------------------|
E |4---------4-----------2--------------------------------------------------|
   shine     on and you  know I love you

       C#                 G#
E |-------------------------------------------------------------------------|
B |-------------------------------------------------------------------------|
G |----6------------------5-------------------------------------------------|
D |----6------------------6-------------------------------------------------|
A |----4------------------6-------------------------------------------------|
E |----4------------------4-------------------------------------------------|
   and even if we can or cant be friends

        F#                    A#m
E |-------------------------------------------------------------------------|
B |-------------------------------------------------------------------------|
G |-----3---------------------6---------------------------------------------|
D |-----4---------------------8---------------------------------------------|
A |-----4---------------------8---------------------------------------------|
E |-----2---------------------6---------------------------------------------|
   I'll be with you until the very end 

      C#        G#          F#
E |-------------------------------------------------------------------------|
B |-------------------------------------------------------------------------|
G |---6---------5-----------3-----------------------------------------------|
D |---6---------6-----------4-----------------------------------------------|
A |---4---------6-----------4-----------------------------------------------|
E |---4---------4-----------2-----------------------------------------------|
  so  Shine     on          yeah

Bridge:
   D#m D#m D#m D#m C#  C#  G#  G#  F#  F#  D#m D#m A#m
E |6-x-6-x-6-x-6-x-4-x-4-x-4-x-4-x-2-x-2-x-6-x-6-x-6-6----------------------|
B |7-x-7-x-7-x-7-x-6-x-6-x-4-x-4-x-2-x-2-x-7-x-7-x-6-6----------------------|
G |8-x-8-x-8-x-8-x-6-x-6-x-5-x-5-x-3-x-3-x-8-x-8-x-6-6----------------------|
D |8-x-8-x-8-x-8-x-6-x-6-x-6-x-6-x-4-x-4-x-8-x-8-x-8-8----------------------|
A |6-x-6-x-6-x-6-x-4-x-4-x-6-x-6-x-4-x-4-x-6-x-6-x-8-8----------------------|
E |6-x-6-x-6-x-6-x-4-x-4-x-4-x-4-x-2-x-2-x-6-x-6-x-6-6----------------------|
         nobody’s wrong   nobody’s right   keep movin on

(just pluck the top strings of these chords, but if you don’t know how.. here’s just something you can play)
        G#      G#     G#  F#     G#      G#      G#
E |---4-------4-------4--2------4-------4-----4-4-4-4-----------------------|
B |-----4-------4-----4--2--------4-------4---4-4-4-4-----------------------|
G |--5---5---5---5----5--3-----5---5---5---5--5-5-5-5-----------------------|
D |6-------6----------6--4---6-------6--------6-6-6-6-----------------------|
A |-------------------6--4--------------------6-6-6-6-----------------------|
E |-------------------------------------------------------------------------|

   F#    A#m   G#    C#
E |2-----6-----4-----4------------------------------------------------------|
B |2-----6-----4-----6------------------------------------------------------|
G |3-----6-----5-----6------------------------------------------------------|
D |4-----8-----6-----6------------------------------------------------------|
A |4-----8-----6-----4------------------------------------------------------|
E |2-----6-----4-----4------------------------------------------------------|

Chorus:

   C#        G#          F#
E |-------------------------------------------------------------------------|
B |-------------------------------------------------------------------------|
G |6---------5-----------3--------------------------------------------------|
D |6---------6-----------4--------------------------------------------------|
A |4---------6-----------4--------------------------------------------------|
E |4---------4-----------2--------------------------------------------------|
   Shine     on you were made to 

   C#        G#          F#
E |-------------------------------------------------------------------------|
B |-------------------------------------------------------------------------|
G |6---------5-----------3--------------------------------------------------|
D |6---------6-----------4--------------------------------------------------|
A |4---------6-----------4--------------------------------------------------|
E |4---------4-----------2--------------------------------------------------|
   shine     on and you  know I love you

       C#                 G#
E |-------------------------------------------------------------------------|
B |-------------------------------------------------------------------------|
G |----6------------------5-------------------------------------------------|
D |----6------------------6-------------------------------------------------|
A |----4------------------6-------------------------------------------------|
E |----4------------------4-------------------------------------------------|
   and even if we can or cant be friends

        F#                    A#m
E |-------------------------------------------------------------------------|
B |-------------------------------------------------------------------------|
G |-----3---------------------6---------------------------------------------|
D |-----4---------------------8---------------------------------------------|
A |-----4---------------------8---------------------------------------------|
E |-----2---------------------6---------------------------------------------|
   You’re gonna be brighter than you’ve ever been

      C#        G#          F#
E |-------------------------------------------------------------------------|
B |-------------------------------------------------------------------------|
G |---6---------5-----------3-----------------------------------------------|
D |---6---------6-----------4-----------------------------------------------|
A |---4---------6-----------4-----------------------------------------------|
E |---4---------4-----------2-----------------------------------------------|
  so  Shine    on

Outro: (just strum A#m)
   A#m
E |-1-|
B |-2-|
G |-3-|
D |-3-|
A |-1-|
E |-1-|


            
            
Suggest correction
Creating personal tab
Creating personal tab
You can edit any tab online and save it as your Personal.

You can edit, replace or remove any tab part or add personal notes – all changes will be seen only by you.

Personal tabs can be accessed anytime from any device, even offline.
Learn more »
Give kudos to tab author, rate the tab!
1 2 3 4 5
comments
print report bad tab
guest
Wanna post a correction for this tab? Suggest correction