Oops, an error
Loading. Please wait.

Take It All Away album tab

version 1
version 1

Album

Whole song

Interactive

1,270 views 1 this week
no commentswrite comment
1 2 3 4 5
3 more votes to show rating
add to favorites
×
Save as Personal and add changes to this tab that will be seen only by you. Learn more ›
×
You can save this tab as Personal to edit and correct it or add notes. All changes will be seen only by you. Learn more »
launch autoscroll
font size
0
reset
how to read this tab
guitar tuner
edit
Autoscroll
slow
fast
+/-
esc
set tempo
stop
Author
Difficulty
Artist: Ryan Cabrera
Album: Take It All Away

Songs:
Lets Take Our Time (No Guitar in song)
On The Way Down
True
Exit To Exit
40 Kinds Of Sadness
Echo Park
Take It All Away
Shame On Me
She's
Illusions
Blindsight
On The Way Down (Acoustic) [Same as the 1st on the way down]
I Know What It Feels Like (Bonus Track)
----------------------------------------------------------------------------

On The Way Down 
Tuned 1/2 Step Down

INTRO/VERSE
e|-0---0---0---0------||
B|-0---0---0---0------||
G|-9---9---9---9------||
D|-11--11--11--11-----||
A|-9---9---12--11-----||
E|-x---10--x----x-----||

CHORUS
e|-2--0--0--0----||  E|-0--0--0--|               
B|-2--3--0--0----||  B|-0--0--3--| 
G|-2--2--2--1----||: G|-2--1--2--|
D|-4--0--2--2----||  D|-4--2--0--|
A|-4--0--0--2----||  A|-4--2--0--|
E|-2--x--x--0----||  E|-x--0--x--|
                               
BRIDGE
e|-0--0--0--0--0--0--0--0--||
B|-0--3--0--3--0--0--3--0--||
G|-1--2--4--2--2--1--2--1--||
D|-2--0--4--0--4--2--0--2--||
A|-2--0--2--0--4--2--0--2--||
E|-x--x--x--x--x--0--x--0--||

Bridge Picking
e|--0------0----|------0--0--|--0--0|
B|----0--0---0-0|--3-----3---|--0--3| 
G|-----2------1-|-----2-----:|--1--2|
D|-4-----2------|0---0----0--|--2--0|
A|--------------|------------|--2---|
E|--------------|------------|--0---|
--------------------------------------------------------------------------

True 
Tuned 1/2 Step

Verse
3x05xx, 3x0400  3x0h2xx, 3x04xx 

x20200,022000

x34030, x57070, x79080

chorus
300033,200230,022033,x32033

x67800, x79987, x35543 <--Last 3 Chords For The Chorus

bridge
x7x05x, x7x07x, x7x08x, 

so after the 7 then start it with 6 then 5 then last chord is x4xx55

----------------------------------------------------------------------------
Exit To Exit 
Tuned 1/2 Step Down

Intro/Verse
Eb|-3--3--0--2
Bb|-3--3--3--3
Gb|-0--0--2--0
Db|-2--0--0--2
Ab|-2--2--0--3
Eb|-0--3--x--x

Pre Chorus    
Eb|-0--3--3--2|-3|
Bb|-1--3--3--3|-3|
Gb|-2--0--0--2|-2|
Db|-2—-0--2--0|-0|
Ab|-0—-x--3--0|-0|
Eb|-x--3--x---|-x|

Chorus
Eb|-3--3--3--2|-2—-3--2--3--2|
Bb|-3--3--3--3|-3—-3—-3--3--3|
Gb|-0--2--0--0|-4—-0—-4--0--2|
Db|-0--0--2--2|-4—-2—-4--2--0|
Ab|-x--0--2--3|-2—-3--2--3--0|
Eb|-3--x--0--x|-x--x--x--x--x|

Bridge
022000,x02020, x32033,x00233

Or

022000, a C starting on the 10th fret. Then repeat.

----------------------------------------------------------------------------
40 Kinds Of Sadness 
Capo on 3rd Fret
Tuned 1/2 Step Down

Verse
022000, Mute Strumming x00230, Mute Strumming x32033 Mute Strumming

Chorus
320033, 200233, 022033, x00233

Bridge
x32030,x54050 x32030,x54050,x02210, 320033,x02210,320033,133211,x00233


----------------------------------------------------------------------------
Echo Park 
Capo on 3rd Fret
Tuned 1/2 Step Down

Intro (pick out these notes)
x90000,x60000, x30000  

verse
x32033,320033

pre chorus 
022000,x32033, 320033, x00233
 
chorus
x02210, x32033, 320003, x00232 

Bridge (pick out these notes)
x90000,x60000, x30000, End on x35543

 
----------------------------------------------------------------------------
Take It All Away 
Tuned Whole Step Down


Intro/Verse
x79900,x69800, x46600, x69800

Pre-Chorus 
x46600,x36500, 577600, 577555

Chorus
x79900,x69800, x46600, x35500

Bridge
G D C9 D

End song with:
079987

----------------------------------------------------------------------------
Shame On Me 
Tuned 1/2 Step Down 

Intro/Verse 
x02010, 07670x, x35533, x20100 

Pre-Chorus 
x57765, x35553,x7670x

Chorus 
x02010, x00231, 133200, 320033/ x57765, x79797, 577555, 355433,133211, 355433

Bridge 
355333- 577555, 355333-577555, x79977, x68866,x57755, x8 10 10 88 
Sponsors

----------------------------------------------------------------------------
She's 
Tuned ½ Step Down
Capo On 1st Fret


Intro/Verse (x79080, x57070, x34040)
e|-----------0-------------0--------------0----------0---|
B|-------------8-------------7--------------3----------3-|
G|-------0-------------0--------------0------0—0--------0|
D|-----9-------------7--------------4---------4----------|
A|---7-----7-------5-----5--------3-----3--------3-3-----|
E|-------------------------------------------------------|

Chorus
022000, x32033, 320033, x00232 (2x)
022000, 200233, x32033, x00232, x32033, x00232

Second Verse
X79080, x57070, x34040

Bridge (Alternate between These)
X32033, x00232, 022000

----------------------------------------------------------------------------
Illusions 
Tuned 1/2 Step Down

Capo 2nd

Intro
022000, x23033, 320033, 200233

Verse
022000,x32033

pre chorus 
022033,200233, 320033,x32033


Chorus
320033,200233,x32033


Bridge
133211, x32033, 320033

----------------------------------------------------------------------------
Blindsight 
Tuned 1/2 Step Down

Verse
x79080, x32030, x30030

When He Says "But you always have to try and fight" its..
022000, 200233, 320033, x02200, 799800
(does this twice in second verse)

Chorus
G, D, Em, C9

Bridge
022000,200233,320033, x02200, x32010, x20010, x67800,x79987
022000,200233,320033,x02200, x32010, 7998000

----------------------------------------------------------------------------

I Know What It Feels Like 
Tuned ½ step down

Capo on 3rd Fret


Intro/Verse
X476xx, x577xx, X476xx, x577xx,

Pre-Chorus
X24432, x02200, x24432, x00230, 022100, x24332, x02200, 022100

Chorus
244222, x24432, x00230, 022100

Bridge 
x00230, x02220, x244xx, 022100, x00230, x00220, x00132

            
            
Suggest correction
Creating personal tab
Creating personal tab
You can edit any tab online and save it as your Personal.

You can edit, replace or remove any tab part or add personal notes – all changes will be seen only by you.

Personal tabs can be accessed anytime from any device, even offline.
Learn more »
Give kudos to tab author, rate the tab!
1 2 3 4 5
comments
print report bad tab
guest
You may want to rate the tab now too:
select rating
Wanna post a correction for this tab? Suggest correction