Oops, an error
Loading. Please wait.

City Of Stars tab

150,607 views 1,182 this week
1 commentread comment
1 2 3 4 5
x 61
add to favorites
×
Save as Personal and add changes to this tab that will be seen only by you. Learn more ›
×
You can save this tab as Personal to edit and correct it or add notes. All changes will be seen only by you. Learn more »
launch autoscroll
font size
0
reset
how to read this tab
guitar tuner
edit
Autoscroll
slow
fast
+/-
esc
set tempo
stop
Author
e|----------------------------------------------2-2--------2-2--------------------------------5-5-4-----5-5-4|
B|---------------------------------------------2----5-2---2---5-2----------------------------2-----5---2-----|
G|-----4-4-2------------4-2-----4-6-2-4-1-2---2----------2---------------4-2---4-6-2-4-1-2--2---------2------|
D|-0-4------4----------4---4--2--------------4----------4---------------4---4-2------------4---------4-------|
A|2---------------2-4-5--------------------------------------------2-4-5-------------------------------------|
E|-----------------------------------------------------------------------------------------------------------|

e|-------------------------------9--9--9--9--9—-9a-----7a--------------------9a-2--------------|
B|2-3------------------------------9-----9-----9--------------------------------2-----7-7-5----|
G|------4-4-2---------------------9-----9-----9---------------------------------2----6------6--|
D|---0-4------4-2--4-2-4-2-4------------------------------9-----------------------7-9----------|
A|--2------------------------7h9-------------------------9----6------4-2-----------------------|
E|--------------0----------------9---8-----7--------9--7----2/4---2-4----4--2------------------|

e|---------------------------------4-5—5-4-0-----4-5-5-4-0---------------------------------------|
B|-----------------2-5-5-3-0---2-5-2---------2-5--------------------------------7-7-5---------7--|
G|-----4-4-2------4----------------2-----------------------------4-4-2--1------6------6-----6-6--|
D|--0-4-----4---2---------------------------------------------0-4-----4-0---7-9----------7-9--7--|
A|-2---------------------------------------------------------2----------2------------------------|
E|-----------------------------------------------------------------------------------------------|


is from my Fingerstyle Versión, you can watch same tab here ,
https://youtu.be/laT5NchKQKo



************************************

| h  Hammer-on
| /  Slide up

************************************
Suggest correction
Creating personal tab
Creating personal tab
You can edit any tab online and save it as your Personal.

You can edit, replace or remove any tab part or add personal notes – all changes will be seen only by you.

Personal tabs can be accessed anytime from any device, even offline.
Learn more »
comments
print report bad tab
1 comment total.
0 reply
mitchbasham 10 Aug 07, 2017 12:05 AM

Definately need to hit the 2nd fret A twice on the first bar

guest
You may want to rate the tab now too:
select rating
Wanna post a correction for this tab? Suggest correction