Oops, an error
Loading. Please wait.
14,147 views 1 this week
6 commentsread comments
1 2 3 4 5
x 10
add to favorites
×
Save as Personal and add changes to this tab that will be seen only by you. Learn more ›
×
You can save this tab as Personal to edit and correct it or add notes. All changes will be seen only by you. Learn more »
launch autoscroll
font size
0
reset
how to read this tab
guitar tuner
edit
Autoscroll
slow
fast
+/-
esc
set tempo
stop
This Ryan Shupe tab is 100% correct.
Tabbed By: Todd Llewellyn
Standard Tuning
Capo on 5th fret
Listen to the CD to get the rhythm right


Intro and Verse:

      Cmaj                       Am              Gmaj     Fmaj  Gmaj
----------------------------------------------------3-------1----3-------|
-------1-------------1--------------1p0---------------------1----h1------|
-----0---0---0-----0---0---0------2-----2---2-----0--0---0--2------------|
---2-------2-----0-------0------2---------2-----0------0----3------------|
-3-------------2--------------0-----------------------------3----2-------|
----------------------------------------------3-------------1----3-------|

About half way through the verse it switches to straight chords:

C , G , Am , Em , F , G

Chorus:

---------------------3-------------------------------------------|
-------1----------------------------1--------------1-------1-----|
-----2---2---2-----0---0---0------0---0---0------0-------0-------|
---2-------2-----0-------0------2-------2------2-------2---------|
-0----------------------------3--------------3-------2-----------|
---------------3-------------------------------------------------|
repeat straight back to the Am
Suggest correction
Creating personal tab
Creating personal tab
You can edit any tab online and save it as your Personal.

You can edit, replace or remove any tab part or add personal notes – all changes will be seen only by you.

Personal tabs can be accessed anytime from any device, even offline.
Learn more »
comments
print report bad tab
6 comments total. Showing first comments.
+1 reply
brantheman 10 Feb 19, 2007 05:27 PM

this song is great and this tab is right

0 reply
brantheman 10 Feb 19, 2007 05:27 PM

5 stars

0 reply
anthony666 51 Apr 18, 2007 07:42 PM

all i can say is great tab man only one mistake and im not even really sure if its a mistake it just sounds like it to me. i was trying to figure it out on my own and a capo didnt even cross my mind for some reason. so thanks for the great tab.

guest
Wanna post a correction for this tab? Suggest correction