Oops, an error
Loading. Please wait.

The Scientists Canvas Tab

10 views 1 this week
no commentswrite comment
1 2 3 4 5
3 more votes to show rating
add to favorites
launch autoscroll
font size
0
reset
how to read this tab
guitar tuner
Autoscroll
slow
fast
+/-
esc
set tempo
stop
Help us to improve Ultimate-Guitar.com Take our survey!
×
Author
Difficulty
intermediate
About this tab version
First contribution for this song. Was this info helpful? Yes No
This was written when Ryan Star had his band "Stage" but there is no artist listed for that on UG.

[Intro/Verse]
      Am          Em             F               C        G
e|------------------------------------------------------3-3-3-3----------------|
B|-1-1-1-1-1-0----0-----------------------------1-1-1-1-3-3-3-3----------------|
G|-2-2-2-2-2---2--0-------0------2-------2-0----0-0-0-0-0-0-0-0----------------|
D|-2-2-2-2-2------2-----2---2----3-----3-----3--2-2-2-2-0-0-0-0----------------|
A|-0-0-0-0-0------2---2-------2--3---3----------3-3-3-3-2-2-2-2----------------|
E|----------------0-0------------1-1--------------------3-3-3-3----------------|

[Chorus]
        F             Em          G
e|---------------------------------------|
B|---------------------------------------|
G|---------------------------------------|
D|---------------------------------------|
A|-3-3-3-3-3-3-3-3--2-2-2--5-5-5-5p4h5---|
E|-1-1-1-1-1-1-1-1--0-0-0--3-3-3-3-3-3---|
Pm . . . . . . . .  . . .  . . . . . . 

[Bridge] (part 1)
   G  F      
e|------------|
B|------------|
G|-------3----| Strum according to the song
D|-5--3--1----|
A|-5--3--1----|
E|-3--1-------|

[Bridge] (part 2) Constant fast strumming
                  Am                  Em
e|------------------------------------------|
B|-1------1-1-1-0-0-0-3-3-3-1-1-1-----------|
G|-2------2-2-2-2-2-2-2-2-2-2-2-2-----------|
D|-2-x16--2-2-2-2-2-2-2-2-2-2-2-2-----2-----|
A|-0------0-0-0-0-0-0-0-0-0-0-0-0-----2-x16-|
E|------------------------------------0-----|
Pm .                                  . 

[Bridge] (part 1)
   G  F      
e|------------|
B|------------|
G|-------3----| Strum according to the song
D|-5--3--1----|
A|-5--3--1----|
E|-3--1-------|

[Bridge] (part 3)
e|----------------------|
B|----------------------|
G|----------------------|
D|----------------------|
A|-3-3-3-2-2-2-2h3p2----|
E|-1-1-1-3-3-3-3--------|


*******************************

| h      Hammer on
| p      Pull off
| Pm .   Palm Mute

*******************************
Suggest correction
Give kudos to tab author, rate the tab!
1 2 3 4 5
comments
print report bad tab
guest
You may want to rate the tab now too:
select rating
Wanna post a correction for this tab? Suggest correction