Oops, an error
Loading. Please wait.

Become The Storm - Ryus Theme Tab

391 views 9 this week
no commentswrite comment
1 2 3 4 5
3 more votes to show rating
add to favorites
launch autoscroll
font size
0
reset
how to read this tab
guitar tuner
×
Best way to learn
"Become The Storm - Ryus Theme"
Autoscroll
slow
fast
+/-
esc
set tempo
stop
Hey guys!

So this is the first tab I've ever made. Apparently it is also the only version of this song so far.
I'm writing down everything but the fasty-soloy part because it is the only one that I cannot figure out. If 
anyone has please help me finish the tabs :)

Rhythm tuning (Left speaker) - C F A# D# G c (four steps down)
Lead tuning ( Right speaker) - E A D G B e (normal tuning)

[Intro]

Rhythm

c |-------------------------------------------------------------|
G |-------------------------------------------------------------|
D#|-----------------------------------------1---------------4---|
A#|--------6---------------6-----------------------------1------| x2
F |-----6---------------6---------------2-----------------------|
C |--4---------------2--------------0-----------------2---------|


Lead

e |---------------------------------------------------------------------------|
B |---------------------------------------------------------------------------|
G |---------------------------------------------------------------------------|
D |-----------7--/9-------------------7--7/9----------------------7-----------|
A |--7---9--10-------10------7---9--10----------10--9---7---9--10-----10-9----|
E |-------------------------------------------------------------------------7-|

e |---------------------------------------------------------|
B |---------------------------------------------------------|
G |------------------7/9----7/9-----------------------------|
D |-------------7-9----------------9-7-----------7----------|
A |--7---9--10--------------------------10--9-10----7----9--|
E |---------------------------------------------------------|

[Verse 1]

Rhythm

c |------------------------|
G |------------------------|
D#|------------------------|
A#|---6-------6--------6---|
F |---6-------6--------6---|
C |---4-------4--------4---|

c |-------------------|
G |-------------------|
D#|-------------------|
A#|---6-6-------66-6--| x8
F |---6-6-------66-6--|
C |---4-4-------44-4--|


c |-----------------------|
G |-----------------------|
D#|-----------------------|
A#|---6--66-6--66-xxxxxxxx| x8
F |---6--66-6--66-xxxxxxxx|
C |---4--44-4--44-44444444|

Lead

e |-------------------------------------------------------------------|
B |-------------------------------------------------------------------|
G |-------------------------------------------------------------------|
D |------------------------5--4----------------------------5--7-------| x8
A |--7---7-5--7---7-5--7--------7-5---7---7-5--7---7-5--7--------5----|
E |-----------------------------------------------------------------7-|

[Verse 2]

Rhythm

c |------------------------------------------------|
G |------------------------------------------------|
D#|------------------------------------------------|
A#|---6-------6--------4---4-----2-----------------|
F |---6-------6--------4---4-----2----4~---6~---6b7|
C |---4-------4--------2---2-----0-----------------|

c |-----------------------------------------------------------------------------|
G |-----------------------------------------------------------------------------|
D#|-----------------------------------------------------------------------------|
A#|---2-------4-------------------------2------4--------------------------------|
F |---2-------4------4----------4--6----2------4-----6--76---6-4----------------|
C |---0-------2-------4---4-6-7---------0------2-----------------7-6-4--4--3~---|


Lead

e |-----------------------------------------------------------------------------|
B |-----------------------------------------------------------------------------|
G |-----------------------------------------------------------------------------|
D |----------------7-----------------------7----------10---9p7------------------|
A |---7---7-9-10--------10910--7--9--10-------7------------------10--10p9--7----|
E |----------------------------------------------10-----------------------------|

e |----------------------------------------------------|
B |----------------------------------------------------|
G |----------------------------------------------------|
D |---------------7h9--7-7----------------7--9h10--9~--| 
A |---7---9-10---------------10--9--9-10---------------|
E |----------------------------------------------------|

e |---------------------------------------------------------------------------------------------|
B |---------------------------------------------------------------------------------------------|
G |---------------------------------------------------------------------------------------------|
D |---------------7~------------------------7--9------------------7--9109--9-7------------------|
A |---10--7-9-10-----10-9-----------7-9-10---------10~---7-9-10-----------------10-9-7--7-6~----|
E |------------------------7--------------------------------------------------------------------|

[Verse 3]

Rhythm

c |--------------------------------|
G |--------------------------------|
D#|--------------------------------|
A#|---6-------4--------3-------2---| x4
F |---6-------4--------3-------2---|
C |---4-------2--------1-------0---|


Lead 1 & 2

e |-----------------7---------------7-----------------------------|
B |----0----7-8-10-----8---0-7-8-10------8-7------7-8--10-8-7-----|
G |------------------------------------------9----------------9~--|
D |---------------------------------------------------------------|
A |---------------------------------------------------------------|
E |---------------------------------------------------------------|

Lead 1

e |----0---5--7-8-10-7---0--5--7-8-10h12-t12----10-12-14--14b15-14---12--10---|
B |---------------------------------------------------------------------------|
G |---------------------------------------------------------------------------|
D |---------------------------------------------------------------------------|
A |---------------------------------------------------------------------------|
E |---------------------------------------------------------------------------|

Lead 2

e |-----------------7---------------7----------------------7h8-7---------|
B |----0----7-8-10-----8---0-7-8-10------8--787-------7-8----------10-8--|
G |----------------------------------------------9---9-------------------|
D |----------------------------------------------------------------------|
A |----------------------------------------------------------------------|
E |----------------------------------------------------------------------|

Lead 1 & 2

e |-----------------7---------------7-----------------------------|
B |----0----7-8-10-----8---0-7-8-10------8-7------7-8--10-8-7-----|
G |------------------------------------------9----------------9~--|
D |---------------------------------------------------------------|
A |---------------------------------------------------------------|
E |---------------------------------------------------------------|

Lead 1

e |----0---5--7-8-10-7---0--5--7-8-10h12-t12----10-12-14--14b15-14---12---8-8--8---|
B |--------------------------------------------------------------------------------|
G |--------------------------------------------------------------------------------|
D |--------------------------------------------------------------------------------|
A |--------------------------------------------------------------------------------|
E |--------------------------------------------------------------------------------|

Lead 2

e |-----------------7---------------7----------------------7h8-7---------------|
B |----0----7-8-10-----8---0-7-8-10------8--787-------7-8----------10p8--5-5~--|
G |----------------------------------------------9---9-------------------------|
D |----------------------------------------------------------------------------|
A |----------------------------------------------------------------------------|
E |----------------------------------------------------------------------------|


[VERSE 4] (solo part)

Starts with the same way as Verse 1, then shit gets serious

Rhythm

c |------------------------------------------------|
G |------------------------------------------------|
D#|------------------------------------------------|
A#|---6-------6--------4---4-----2-----------------|
F |---6-------6--------4---4-----2----4~---6~---6b7|
C |---4-------4--------2---2-----0-----------------|


c |-----------------------------------------------------------------------------|
G |-----------------------------------------------------------------------------|
D#|-----------------------------------------------------------------------------|
A#|---2-------4-------------------------2------4--------------------------------| x2 (only this line)
F |---2-------4------4----------4--6----2------4-----6--76---6-4----------------|
C |---0-------2-------4---4-6-7---------0------2-----------------7-6-4--4--3~---|


Lead

e |-----------------------------------------------------------------------------|
B |-----------------------------------------------------------------------------|
G |-----------------------------------------------------------------------------|
D |----------------7-----------------------7----------10---9p7------------------|
A |---7---7-9-10--------10910--7--9--10-------7------------------10--10p9--7----|
E |----------------------------------------------10-----------------------------|

e |----------------------------------------------------|
B |----------------------------------------------------|
G |----------------------------------------------------|
D |---------------7h9--7-7----------------7--9h10--9~--| 
A |---7---9-10---------------10--9--9-10---------------|
E |----------------------------------------------------|

[Solo]

(insert here)

[VERSE 5] (Outro)

Rhythm

c |--------------------------------|
G |--------------------------------|
D#|--------------------------------|
A#|---6-------4--------2-------4---| x4
F |---6-------4--------2-------4---|
C |---4-------2--------0-------2---|
Then ends with an E (4th fret 6th string)


Lead

e |-----------------------------------------------------------------------------------------|
B |-----------------------------------------------------------------------------------------|
G |-----------------------------------------------------------------------------------------|
D |--------------10--/12-----------------------10--10/12----------------------10------------|
A |--10---12--13----------13------10---12--13-------------13--12---10--12--13-----13-12-----|
E |--------------------------------------------------------------------------------------10-|

e |--------------------------------------------------------------------|
B |--------------------------------------------------------------------|
G |---------------------10/12----10/12---------------------------------|
D |--------------10-12------------------12-10------------10------------| x2 (both lines)
A |--10---12--13------------------------------13--12-13------10----9~--|
E |--------------------------------------------------------------------|


************************************

| h   Hammer-on
| p   Pull-off
| b   Bend
| /   Slide up
| \   Slide down
| ~   Vibrato
| t   Tremolo

************************************

So there you have it. This amazing cover of Ryu's theme by Ryashon. At least most of it. I won't lie,
I mostly made the tabs so that someone would help me figure out the solo part, so if you can help, please help
me finish the thing :)

Video: https://www.youtube.com/watch?v=19dZab1inas
Suggest correction
Give kudos to tab author, rate the tab!
1 2 3 4 5
comments
print report bad tab
guest
You may want to rate the tab now too:
select rating
Wanna post a correction for this tab? Suggest correction