Oops, an error
Loading. Please wait.

Mortal Kombat bass

version 1
version 1

Whole song

Interactive

by Ryashon
696 views 1 this week
no commentswrite comment
1 2 3 4 5
2 more votes to show rating
add to favorites
×
Save as Personal and add changes to this tab that will be seen only by you. Learn more ›
×
You can save this tab as Personal to edit and correct it or add notes. All changes will be seen only by you. Learn more »
launch autoscroll
font size
0
reset
guitar tuner
edit
Autoscroll
slow
fast
+/-
esc
set tempo
stop
Author
Difficulty
-------------------------------------------------------------------------------
                             Mortal Kombat - Ryashon
-------------------------------------------------------------------------------
Tabbed by: Andu Needle
E-mail: sulfur_in_my_lungs@yahoo.com

Part A:

G|-----------------------------------------------------------|
D|-----------------------------------------------------------|
A|-----------3-----------------------3-----------------------|
E|-5-5-5-5-3---5-5-5-5-3-0-5-5-5-5-3---5-5-33-55-------------|

Part B:

G|-----------------------------------------------------------|
D|-----------------------------------------------------------|
A|---7-------------------------------------------------------|
E|-5---5-8-5-6-5-8-5-6-3-------------------------------------|(x3)

G|-----------------------------------------------------------|
D|-----------------------------------------------------------|
A|---7-------------------------------------------------------|
E|-5---5-8-5-3-3-5-5-----------------------------------------|

Fill:

G|-----------------------------------------------------------|
D|-----------------------------------------------------------|
A|-----------------------------------------------------------|
E|-5-5-5-5---------------------------------------------------|

Part C:

G|-----------------------------------------------------------|
D|-----------------------------------------------------------|
A|-----------------------------------------------------------|
E|-555-3-0---------------------------------------------------|

Part D:

G|-----------------------------------------------------------|
D|-----------------------------------------------------------|
A|---------------3-------------------------------------------|
E|-55-55-55-55-3---55-55-55-55-3-0---------------------------|

G|-----------------------------------------------------------|
D|-----------------------------------------------------------|
A|---------------3-------------------------------------------|
E|-55-55-55-55-3---55-55-533-55------------------------------|

Order:

Part A x2
Part B x2 (the second time you play only the first part, the one with x3)
Fill x1
Part C x16
Rest
Part B x2
Part C x16
Rest
Part D x4

            
            
Suggest correction
Creating personal tab
Creating personal tab
You can edit any tab online and save it as your Personal.

You can edit, replace or remove any tab part or add personal notes – all changes will be seen only by you.

Personal tabs can be accessed anytime from any device, even offline.
Learn more »
Give kudos to tab author, rate the tab!
1 2 3 4 5
comments
print report bad tab
guest
You may want to rate the tab now too:
select rating
Wanna post a correction for this tab? Suggest correction