Oops, an error
Loading. Please wait.

Certified Pranksters Tab

13 views 1 this week
no commentswrite comment
1 2 3 4 5
2 more votes to show rating
add to favorites
launch autoscroll
font size
0
reset
how to read this tab
guitar tuner
×
Best way to learn
"Certified Pranksters"
Autoscroll
slow
fast
+/-
esc
set tempo
stop
Author
Difficulty
  follow
intermediate
[Intro] (played throughout, listen for timing)

e|------5------5---------------|
B|--------5--5---5-------------|
G|-----------------------------|
D|-----------------------------|
A|-----------------------------|
E|-----------------------------|
       NH NH  NH


[Verse]

e|-----------------------------|
B|-----------------------------|
G|-----------------------------|
D|-7-/-9-----------------------|
A|-7-/-9-----------------------|
E|-5-/-7-----------------------|



[Outro]

e|--------------------------------|
B|--------------------------------|
G|-----------7--------------------|
D|-7-/-9--9--7--7-/-9--9--7-------|
A|-7-/-9--9--5--7-/-9--9--7-------| x4
E|-5-/-7--7-----5-/-7--7--5-------|

[


************************************

| NH - Natural Harmonic

| / - Slide up

************************************
Suggest correction
Give kudos to tab author, rate the tab!
1 2 3 4 5
comments
print report bad tab
guest
You may want to rate the tab now too:
select rating
Wanna post a correction for this tab? Suggest correction