Oops, an error
Loading. Please wait.

Certified Pranksters Tab

1 view 1 this week
no commentswrite comment
1 2 3 4 5
3 more votes to show rating
add to favorites
launch autoscroll
font size
0
reset
how to read this tab
guitar tuner
Autoscroll
slow
fast
+/-
esc
set tempo
stop
Help us to improve Ultimate-Guitar.com Take our survey!
×
Author
Difficulty
intermediate
[Intro] (played throughout, listen for timing)

e|------5------5---------------|
B|--------5--5---5-------------|
G|-----------------------------|
D|-----------------------------|
A|-----------------------------|
E|-----------------------------|
       NH NH  NH


[Verse]

e|-----------------------------|
B|-----------------------------|
G|-----------------------------|
D|-4-/-7-----------------------|
A|-4-/-7-----------------------|
E|-2-/-5-----------------------|



[Outro]

e|-----------------------------|
B|-----------------------------|
G|--------7--------------------|
D|-4-/-7--7--4-/-7--7----------|
A|-4-/-7--5--4-/-7--7----------| x4
E|-2-/-5-----2-/-5--5----------|

[


************************************

| NH - Natural Harmonic

| / - Slide up

************************************
Suggest correction
Give kudos to tab author, rate the tab!
1 2 3 4 5
comments
print report bad tab
guest
You may want to rate the tab now too:
select rating
Wanna post a correction for this tab? Suggest correction