Oops, an error
Loading. Please wait.

Cliffs Of Gallipoli tab

version 2
version 2

Whole song

Interactive

by Sabaton
546 views 1 this week
no commentswrite comment
1 2 3 4 5
2 more votes to show rating
add to favorites
×
Save as Personal and add changes to this tab that will be seen only by you. Learn more ›
×
You can save this tab as Personal to edit and correct it or add notes. All changes will be seen only by you. Learn more »
launch autoscroll
font size
0
reset
how to read this tab
guitar tuner
edit
Autoscroll
slow
fast
+/-
esc
set tempo
stop
Author
Difficulty
-------------------------------------------------------------------------------
                             CLIFFS OF GALLIPOLI - Sabaton
-------------------------------------------------------------------------------
Tabbed by: dario333
E-mail: dario.orlic3

Tuning: Standard

Hello,guys! This is my first tab, hope you like it. I wrote it mostly by
ear so please correct me if I made any mistakes. Thanks to Tommynator4613
for his great cover video from witch I learnt this song.

Intro:
e|---------------------------------------------------------------------------|
B|---------------------------------------------------------------------------|
G|---------------------------------------------------------------------------|
D|-7-------------------5---7-----------------9--3--5----7--------------------|
A|-5-5-5---5---5-5-5---3---5---5-5-5---5-5---7--5--3----5---5-5-5---5-5-5----|
E|---------------------------------------------------------------------------|

e|---------------------------------------------------------------------------|
B|---------------------------------------------------------------------------|
G|---------------------------------------------------------------------------|
D|-5-7-----------------------------------------------------------------------|
A|-3-5--------1----0-0--------------------------5-7-8-7-5--------------------|
E|------0-0-3----3------3-3-3--1-1-3-1-0------8------------------------------|

e|---------------------------------------------------------------------------|
B|---------------------------------------------------------------------------|
G|---------------------------------------------------------------------------|
D|-7-------------------5---7-----------------9--3--5----7--------------------|
A|-5-5-5---5---5-5-5---3---5---5-5-5---5-5---7--5--3----5---5-5-5---5-5-5----|
E|---------------------------------------------------------------------------|

e|---------------------------------------------------------------------------|
B|---------------------------------------------------------------------------|
G|---------------------------------------------------------------------------|
D|-5-7---------------------------------------------------------------7-------|
A|-3-5--------1------3--1-1-1----0-0-------0-------------5-7-8-7-5---5-------|
E|------0-0-3----3-3-----------3-------1-1---3-3~------8---------------------|


Main:
e|---------------------------------------------------------------------------|
B|---------------------------------------------------------------------------|
G|---------------------------------------------------------------------------|
D|-5-7--------1--0--3-----5-----5-7----------1--0--------5-------------------|
A|-3-5--------0--0--1--3--3-----3-5----------0--0--1--3--3-------------------|
E|---------------------1---------------------------0--1----------------------|

e|---------------------------------------------------------------------------|
B|---------------------------------------------------------------------------|
G|---------------------------------------------------------------------------|
D|-7-----------5---7-----------5-------8-----------5---8---------------------|
A|-5---8---3---3---5---8---3---3---5---6---8---3---3---6---8---3-------------|
E|-----6---1-----------6---1-------3-------6---1-----------6---1-------------|

   |--------PALM MUTE---------|
e|---------------------------------------------------------------------------|
B|---------------------------------------------------------------------------|
G|---------------------------------------------------------------------------|
D|-------5-5----5-5----5-5----5--3-------------------------------------------|
A|-5-5-3------3------3------3----1----3--0-----------------------------------|
E|------------------------------------1--0-----------------------------------|

e|---------------------------------------------------------------------------|
B|---------------------------------------------------------------------------|
G|---------------------------------------------------------------------------|
D|-7-------------------5---7-----------------9--3--5---5---------------------|
A|-5---5-5-5---5-5-5---3---5---5-5-5---5-5---7--5--3---3---3-3-3---3-3-------|
E|---------------------------------------------------------------------------|

e|---------------------------------------------------------------------------|
B|---------------------------------------------------------------------------|
G|---------------------------------------------------------------------------|
D|--------------------------------------3------------------------------------|
A|-------1----0-0-----------------------1----3--0----------------------------|
E|-0-0-3----3------3-3-3--1-1-3-1-0----------1--0----------------------------|

e|---------------------------------------------------------------------------|
B|---------------------------------------------------------------------------|
G|---------------------------------------------------------------------------|
D|-7-------------------5---7-----------------9--3--5---5---------------------|
A|-5---5-5-5---5-5-5---3---5---5-5-5---5-5---7--5--3---3---3-3-3---3-3-------|
E|---------------------------------------------------------------------------|

e|---------------------------------------------------------------------------|
B|---------------------------------------------------------------------------|
G|---------------------------------------------------------------------------|
D|--------------------------------------------------------------7------------|
A|-------1------3--1-1-1----0-0-------0-------------5-7-8-7-5---5------------|
E|-0-0-3----3-3-----------3-------1-1---3-3~------8--------------------------|

e|---------------------------------------------------------------------------|
B|---------------------------------------------------------------------------|
G|---------------------------------------------------------------------------|
D|-5-7--------1--0--3-----5-----5-7----------1--0--------5-------------------|
A|-3-5--------0--0--1--3--3-----3-5----------0--0--1--3--3-------------------|
E|---------------------1---------------------------0--1----------------------|

e|---------------------------------------------------------------------------|
B|---------------------------------------------------------------------------|
G|---------------------------------------------------------------------------|
D|-7-----------5---7-----------5-------8-----------5---8---------------------|
A|-5---8---3---3---5---8---3---3---5---6---8---3---3---6---8---3-------------|
E|-----6---1-----------6---1-------3-------6---1-----------6---1-------------|

   |--------PALM MUTE---------|
e|---------------------------------------------------------------------------|
B|---------------------------------------------------------------------------|
G|---------------------------------------------------------------------------|
D|-------5-5----5-5----5-5----5--3-------------------------------------------|
A|-5-5-3------3------3------3----1----3--0-----------------------------------|
E|------------------------------------1--0-----------------------------------|

e|---------------------------------------------------------------------------|
B|---------------------------------------------------------------------------|
G|---------------------------------------------------------------------------|
D|-7-------------------5---7-----------------9--3--5---5---------------------|
A|-5---5-5-5---5-5-5---3---5---5-5-5---5-5---7--5--3---3---3-3-3---3-3-------|
E|---------------------------------------------------------------------------|

e|---------------------------------------------------------------------------|
B|---------------------------------------------------------------------------|
G|---------------------------------------------------------------------------|
D|--------------------------------------3------------------------------------|
A|-------1----0-0-----------------------1----3--0----------------------------|
E|-0-0-3----3------3-3-3--1-1-3-1-0----------1--0----------------------------|

e|---------------------------------------------------------------------------|
B|---------------------------------------------------------------------------|
G|---------------------------------------------------------------------------|
D|-7-------------------5---7-----------------9--3--5---5---------------------|
A|-5---5-5-5---5-5-5---3---5---5-5-5---5-5---7--5--3---3---3-3-3---3-3-------|
E|---------------------------------------------------------------------------|

e|---------------------------------------------------------------------------|
B|---------------------------------------------------------------------------|
G|---------------------------------------------------------------------------|
D|---------------------------------------------------------------------------|
A|-------1------3--1-1-1----0-0-------0-------------5-7-8-7-5--0-------------|
E|-0-0-3----3-3-----------3-------1-1---3-3~------8--------------------------|

e|---------------------------------------------------------------------------|
B|---------------------------------------------------------------------------|
G|---------------------------------------------------------------------------|
D|---------------------------------------------------------------------------|
A|-4-5---5-7---7-5---5-------------------4-5---5-7---7-5---5------------ ----|
E|---------------------6---5-6-----6-5-----------------------6---5-6---6-----|


 Solo:  (all the pull-offs aren't necessary, I just put them in to make the
         solo easier to play)
e|---------------------------------------------------------------------------|
B|------------------------------------------------------10---10--------------|
G|-10p9---------9-10---10p9-------------9-10-12---10-12---------12-10-10~----|
D|------12---12-------------12-10~---10--------------------------------------|
A|---------------------------------------------------------------------------|
E|---------------------------------------------------------------------------|

e|-----------8---8-----------------------------------------------------------|
B|-----10-11-------11-10------11p10------------10-11---11p10-----------------|
G|--10-------------------12---------12---12-12---------------12-10~----------|
D|---------------------------------------------------------------------------|
A|---------------------------------------------------------------------------|
E|---------------------------------------------------------------------------|

e|----------8------8-10---10p8------------10-11-13---13p11p10----------------|
B|----10-11-----11-------------11-11---11---------------------13-------------|
G|-10------------------------------------------------------------------------|
D|---------------------------------------------------------------------------|
A|---------------------------------------------------------------------------|
E|---------------------------------------------------------------------------|

e|-11-10-11---------11-10-11---------11-10-11---------10-11-13---------------|
B|----------13---13----------13---13----------11---11----------11------------|
G|---------------------------------------------------------------------------|
D|---------------------------------------------------------------------------|
A|---------------------------------------------------------------------------|
E|---------------------------------------------------------------------------|

e|----11-13-15-11---11-13-15-16---------16-13-15---------13-15-13------------|
B|-11---------------------------16---16----------16---16----------16-15------|
G|----------------------------------------------------------------------15---|
D|---------------------------------------------------------------------------|
A|---------------------------------------------------------------------------|
E|---------------------------------------------------------------------------|

Final:
e|---------------------------------------------------------------------------|
B|---------------------------------------------------------------------------|
G|---------------------------------------------------------------------------|
D|---------------------------------------------11-14-11----------------------|
A|-12-13--10-12-----10---------12-13--10-12-13-------------------------------|
E|---------------13-----12-13------------------------------------------------|

e|---------------------------------------------------------------------------|
B|---------------------------------------------------------------------------|
G|---------------------------------------------------------------------------|
D|---------------------------------------------11-14-11-12~------------------|
A|-12-13--10-12-----10---------12-13--10-12-13-------------------------------|
E|---------------13-----12-13------------------------------------------------|

e|---------------------------------------------------------------------------|
B|---------------------------------------------------------------------------|
G|---------------------------------------------------------------------------|
D|-(7)-----------5---7-----------5-------8-----------5---8-------------------|
A|-(5)---8---3---3---5---8---3---3---5---6---8---3---3---6---8---3-----------|
E|-------6---1-----------6---1-------3-------6---1-----------6---1-----------|

   |--------PALM MUTE---------|
e|---------------------------------------------------------------------------|
B|---------------------------------------------------------------------------|
G|---------------------------------------------------------------------------|
D|-------5-5----5-5----5-5----5--3-------------------------------------------|
A|-5-5-3------3------3------3----1----3--0-----------------------------------|
E|------------------------------------1--0-----------------------------------|

e|---------------------------------------------------------------------------|
B|---------------------------------------------------------------------------|
G|---------------------------------------------------------------------------|
D|-7-------------------5---7-----------------9--3--5---5---------------------|
A|-5---5-5-5---5-5-5---3---5---5-5-5---5-5---7--5--3---3---3-3-3---3-3-------|
E|---------------------------------------------------------------------------|

e|---------------------------------------------------------------------------|
B|---------------------------------------------------------------------------|
G|---------------------------------------------------------------------------|
D|--------------------------------------3------------------------------------|
A|-------1----0-0-----------------------1----3--0----------------------------|
E|-0-0-3----3------3-3-3--1-1-3-1-0----------1--0----------------------------|

e|---------------------------------------------------------------------------|
B|---------------------------------------------------------------------------|
G|---------------------------------------------------------------------------|
D|-7-------------------5---7-----------------9--3--5---5---------------------|
A|-5---5-5-5---5-5-5---3---5---5-5-5---5-5---7--5--3---3---3-3-3---3-3-------|
E|---------------------------------------------------------------------------|

e|---------------------------------------------------------------------------|
B|---------------------------------------------------------------------------|
G|---------------------------------------------------------------------------|
D|---------------------------------------------------------------------------|
A|-------1------3--1-1-1----0-0-------0-------------5-7-8-7-5----------------|
E|-0-0-3----3-3-----------3-------1-1---3-3~------8--------------------------|

e|---------------------------------------------------------------------------|
B|---------------------------------------------------------------------------|
G|--------------------------------6-9-6--------------------------------------|
D|-7-8--5-7----5-------7-8--5-7-8--------7-8--5-7----5-------7-8--5-7-8------|
A|-----------8----7-8------------------------------8----7-8------------------|
E|---------------------------------------------------------------------------|


e|---------------------------------------------------------------------------|
B|---------------------------------------------------------------------------|
G|-6-9-6-7~~~~~~-------------------------------------------------------------|
D|------------------7\-------------------------------------------------------|
A|------------------5\-------------------------------------------------------|
E|---------------------------------------------------------------------------|

************************************

| /   slide up
| \   slide down
| h   hammer-on
| p   pull-off
| ~   vibrato
| +   harmonic
| x   Mute note
| b   Bend
| pb  Pre-bend
| br  Bend release
| pbr Pre-bend release
| brb Bend release bend
| ()  Doesn't need to be played
************************************

            
            
Suggest correction
Creating personal tab
Creating personal tab
You can edit any tab online and save it as your Personal.

You can edit, replace or remove any tab part or add personal notes – all changes will be seen only by you.

Personal tabs can be accessed anytime from any device, even offline.
Learn more »
Give kudos to tab author, rate the tab!
1 2 3 4 5
comments
print report bad tab
guest
You may want to rate the tab now too:
select rating
Wanna post a correction for this tab? Suggest correction