Oops, an error
Loading. Please wait.

Ghost Division Tab

version 1
version 1

Whole song

Interactive

22,334 views 48 this week
no commentswrite comment
1 2 3 4 5
x 4
add to favorites
launch autoscroll
font size
0
reset
how to read this tab
guitar tuner
Autoscroll
slow
fast
+/-
esc
set tempo
stop
Help us to improve Ultimate-Guitar.com Take our survey!
×
Author
[Riff 1]

e|--------------------------------------------------|
B|--------------------------------------------------|
G|-----------------------------------------2--------|      
D|--4---5--4--5--4--5--4--2---4---5--4--5--0--2-----|
A|--2---3--2--3--2--3--2--0---2---3--2--3-----0-----|
E|--------------------------------------------------|(x2)


[End]

e|------------|
B|------------|
G|------------|
D|--4---------|
A|--2---------|
E|------------|


[Riff 3]

e|---------------------------|
B|---------------------------|
G|---------------------------|    
D|--4--2---4--5-5--4--2------|
A|--2--0---2--3-3--2--0------|
E|---------------------------|(x2)


[Riff 4]

e|-------------------|
B|-------------------|
G|--2----------------|
D|--0--2-----2-------|
A|-----0--5--0-------|
E|--------3----------|


[Riff 1] (x2)

[Riff 3] (x2)


[Riff 5]

e|--------------------------------------|
B|--------------------------------------|
G|--2-----------------------------------|
D|--0--2-----2--------------------------|
A|-----0--5--0---5--4-4-4-4-4-4-4-4-4---|
E|--------3------3--2-2-2-2-2-2-2-2-2---|


[Riff 1]  (4x)

[Riff 3]  (2x)

[Riff 4]  (1x)

[Riff 1]  (2x)

[Riff 3]  (2x)

[Riff 5]  (1x)

[Riff 1]  (2x)


[Riff 6]

(when keyboard play solo)
e|--------------------------------------|
B|--------------------------------------|
G|-------------------4---4-x-2---x------|
D|--4---4-x-4----4-x-2---2-x-0---x-2----|
A|--2---2-x-2----2-x---------------0----|
E|--------------------------------------|

[Riff 1] (3x)

[Riff 3] (2x)

[Riff 5] (1x)

[Riff 1] (4x)


************************************

| x  Dead note

************************************
Suggest correction
comments
print report bad tab
guest
You may want to rate the tab now too:
select rating
Wanna post a correction for this tab? Suggest correction