Oops, an error
Loading. Please wait.

Ghost Division Tab

version 2
version 2

Whole song

Interactive

22,012 views 45 this week
no commentswrite comment
1 2 3 4 5
excellent!
x 5
add to favorites
launch autoscroll
font size
0
reset
how to read this tab
guitar tuner
Tab Pro tools
  • play this tab
  • loop segment
  • change instrument
  • show fretboard
  • metronome
×
Best way to learn
"Ghost Division"
Autoscroll
slow
fast
+/-
esc
set tempo
stop
INTRO

E1----------------------------------------------------|
B2----------------------------------------------------|
G3----------------------------------------------------|   x2   
D4--4---5--4--5--4--5--4-2-4---5--4--5--7---7-5---2---|
A5--2---2--2--2--2--2--2-2-2---2--2--2--5---5-2---2---|
E6--2---2--2--2--2--2--2-0-2---2--2--2--5---5-2---0---|

end of riff :

E1------------|
B2------------|
G3------------|
D4--4---------|
A5--2---------|
E6------------|

Couplet:

E1------------------------------------------------------|
B2------------------------------------------------------|
G3------------------------------------------------------|     
D4--4--2---4--5-5--4--2--4-----4--2---4--5-5--4--2------|
A5--2--2---2--2-2--2--2--2-----2--2---2--2-2--2--2------|
E6--2--0---2--2-2--2--0--2-----2--0---2--2-2--2--0------|
 


E1-------------------|
B2-------------------|
G3--2----------------|    
D4--0--2-----2-------|
A5-----0--5--0-------|
E6--------3----------|


E1--------------------------------------------------|
B2--------------------------------------------------|
G3--------------------------------------------------|   x2   
D4----5--4--5--4--5--4-2-4---5--4--5--7---7-5---2---|
A5----2--2--2--2--2--2-2-2---2--2--2--5---5-2---2---|
E6----2--2--2--2--2--2-0-2---2--2--2--5---5-2---0---|


end of riff :

E1------------|
B2------------|
G3------------|
D4--4---------|
A5--2---------|
E6------------|


E1------------------------------------------------------|
B2------------------------------------------------------|
G3------------------------------------------------------|     
D4--4--2---4--5-5--4--2--4-----4--2---4--5-5--4--2------|
A5--2--2---2--2-2--2--2--2-----2--2---2--2-2--2--2------|
E6--2--0---2--2-2--2--0--2-----2--0---2--2-2--2--0------|


Pre-Chorus
E1--------------------------------------|
B2--------------------------------------|
G3--2-----------------------------------|
D4--0--2-----2--------------------------|
A5-----0--5--0---5--4-4-4-4-4-4-4-4-4---|
E6--------3------3--2-2-2-2-2-2-2-2-2---|


Chorus
E1-------------------------------------------|
B2-------------------------------------------|
G3-------------------------------------------|      
D4--4--2--4----4--5--4----4--2--4----7--2----|
A5--2--2--2----2--2--2----2--2--2----5--2----|
E6--2--0--2----2--2--2----2--0--2----5--0----|

E1-------------------------------------------|
B2-------------------------------------------|
G3-------------------------------------------|      
D4--4--5--4----4--2--4----4--5--4----7--2----|
A5--2--2--2----2--2--2----2--2--2----5--2----|
E6--2--2--2----2--0--2----2--2--2----5--0----|




E1--------------------------------------------------|
B2--------------------------------------------------|
G3--------------------------------------------------|   x2   
D4----5--4--5--4--5--4-2-4---5--4--5--7---7-5---2---|
A5----2--2--2--2--2--2-2-2---2--2--2--5---5-2---2---|
E6----2--2--2--2--2--2-0-2---2--2--2--5---5-2---0---|




Couplet:

E1------------------------------------------------------|
B2------------------------------------------------------|
G3------------------------------------------------------|     
D4--4--2---4--5-5--4--2--4-----4--2---4--5-5--4--2------|
A5--2--2---2--2-2--2--2--2-----2--2---2--2-2--2--2------|
E6--2--0---2--2-2--2--0--2-----2--0---2--2-2--2--0------|


E1-------------------|
B2-------------------|
G3--2----------------|    
D4--0--2-----2-------|
A5-----0--5--0-------|
E6--------3----------|


E1--------------------------------------------------|
B2--------------------------------------------------|
G3--------------------------------------------------|   x2   
D4----5--4--5--4--5--4-2-4---5--4--5--7---7-5---2---|
A5----2--2--2--2--2--2-2-2---2--2--2--5---5-2---2---|
E6----2--2--2--2--2--2-0-2---2--2--2--5---5-2---0---|


end of riff :

E1------------|
B2------------|
G3------------|
D4--4---------|
A5--2---------|
E6------------|


E1------------------------------------------------------|
B2------------------------------------------------------|
G3------------------------------------------------------|     
D4--4--2---4--5-5--4--2--4-----4--2---4--5-5--4--2------|
A5--2--2---2--2-2--2--2--2-----2--2---2--2-2--2--2------|
E6--2--0---2--2-2--2--0--2-----2--0---2--2-2--2--0------|


Pre-Chorus
E1--------------------------------------|
B2--------------------------------------|
G3--2-----------------------------------|
D4--0--2-----2--------------------------|
A5-----0--5--0---5--4-4-4-4-4-4-4-4-4---|
E6--------3------3--2-2-2-2-2-2-2-2-2---|


Chorus
E1-------------------------------------------|
B2-------------------------------------------|
G3-------------------------------------------|      
D4--4--2--4----4--5--4----4--2--4----7--2----|
A5--2--2--2----2--2--2----2--2--2----5--2----|
E6--2--0--2----2--2--2----2--0--2----5--0----|

E1-------------------------------------------|
B2-------------------------------------------|
G3-------------------------------------------|      
D4--4--5--4----4--2--4----4--5--4----7--2----|
A5--2--2--2----2--2--2----2--2--2----5--2----|
E6--2--2--2----2--0--2----2--2--2----5--0----|




Solo-part

E1--------------------------------------|
B2--------------------------------------|
G3-------------------4---4-x-2---x------|  X2
D4--4---4-x-4----4-x-2---2-x-0---x-2----|
A5--2---2-x-2----2-x---------------0----|
E6--------------------------------------|


E1----------------------------------------------------|
B2----------------------------------------------------|
G3----------------------------------------------------|   x3   
D4--4---5--4--5--4--5--4-2-4---5--4--5--7---7-5---2---|
A5--2---2--2--2--2--2--2-2-2---2--2--2--5---5-2---2---|
E6--2---2--2--2--2--2--2-0-2---2--2--2--5---5-2---0---|


E1--------------------------------------------------|
B2--------------------------------------------------|
G3--------------------------------------------------|   x2   
D4----5--4--5--4--5--4-2-4---5--4--5--7---7-5---2---|
A5----2--2--2--2--2--2-2-2---2--2--2--5---5-2---2---|
E6----2--2--2--2--2--2-0-2---2--2--2--5---5-2---0---|


end of riff :

E1------------|
B2------------|
G3------------|
D4--4---------|
A5--2---------|
E6------------|


E1------------------------------------------------------|
B2------------------------------------------------------|
G3------------------------------------------------------|     
D4--4--2---4--5-5--4--2--4-----4--2---4--5-5--4--2------|
A5--2--2---2--2-2--2--2--2-----2--2---2--2-2--2--2------|
E6--2--0---2--2-2--2--0--2-----2--0---2--2-2--2--0------|



Pre-Chorus
E1--------------------------------------|
B2--------------------------------------|
G3--2-----------------------------------|
D4--0--2-----2--------------------------|
A5-----0--5--0---5--4-4-4-4-4-4-4-4-4---|
E6--------3------3--2-2-2-2-2-2-2-2-2---|


Chorus
E1-------------------------------------------|
B2-------------------------------------------|
G3-------------------------------------------|      
D4--4--2--4----4--5--4----4--2--4----7--2----|
A5--2--2--2----2--2--2----2--2--2----5--2----|
E6--2--0--2----2--2--2----2--0--2----5--0----|

E1-------------------------------------------|
B2-------------------------------------------|
G3-------------------------------------------|      
D4--4--5--4----4--2--4----4--5--4----7--2----|
A5--2--2--2----2--2--2----2--2--2----5--2----|
E6--2--2--2----2--0--2----2--2--2----5--0----|


E1-------------------------------------------|
B2-------------------------------------------|
G3-------------------------------------------|      
D4--4--2--4----4--5--4----4--2--4----7--2----|
A5--2--2--2----2--2--2----2--2--2----5--2----|
E6--2--0--2----2--2--2----2--0--2----5--0----|

E1----------------------------------------------|
B2----------------------------------------------|
G3----------------------------------------------|      
D4--4--5--4----4--2--4----4--5--4-7---7--5-2--4-|
A5--2--2--2----2--2--2----2--2--2-5---5--2-2--2-|
E6--2--2--2----2--0--2----2--2--2-5---5--2-0--2-|



comments
print report bad tab
I want to post or [tab]
guest
You may want to rate the tab now too:
select rating
Please do not post tabs as comments. Select "correction" instead!