Oops, an error
Loading. Please wait.

Panzer Battalion Tab

version 1
version 1

Whole song

Interactive

7,766 views 33 this week
no commentswrite comment
1 2 3 4 5
accurate
x 4
add to favorites
launch autoscroll
font size
0
reset
how to read this tab
guitar tuner
Autoscroll
slow
fast
+/-
esc
set tempo
stop
Help us to improve Ultimate-Guitar.com Take our survey!
×
-------------------------------------------------------------------------------
                           Panzer Battalion - Sabaton
-------------------------------------------------------------------------------
Tabbed by: Petzakecske
Email: petzazsoldos@hotmail.com

Tuning: Standard
________________

Riff
________

Guitar 1
e|-------------------------|------------------------|
B|-------------------------|------------------------|
G|--7------10----10----10--|--7------10----9-----7--|
D|--0-0000-0--00-0--00-0---|--8-8888-8--88-8--88-8--|
A|-------------------------|------------------------|
E|-------------------------|------------------------|
      xxxx    xx    xx          xxxx    xx    xx
e|-----------------------------------------|------------------------|
B|-----------------------------------------|------------------------|
G|---9-------------12--------10---------9--|--6------7-----9-----6--|
D|--10-10-10-10-10-10--10-10-10--10-10-10--|--7-7777-7--77-7--77-7--|
A|-----------------------------------------|------------------------|  x3
E|-----------------------------------------|------------------------|
       x  x  x  x      x  x      x  x           xxxx    xx    xx

e|-------------------------|------------------------|
B|-------------------------|------------------------|
G|--7------7-----7-----7---|--5------5-----7-----7--|
D|--0-0000-0--00-0--00-0---|--5-5555-5--55-5--55-5--|
A|-------------------------|------------------------|
E|-------------------------|------------------------|
      xxxx    xx    xx          xxxx    xx    xx
e|-------------------------|------------------------|
B|-------------------------|------------------------|
G|--6------9-----7-----6---|--7---------------------|
D|--7-7777-7--77-7--77-7---|--7---------------------|
A|-------------------------|------------------------|  x1
E|-------------------------|------------------------|
      xxxx    xx    xx

GUitar 2

e|-------------------------|------------------------|
B|-------------------------|------------------------|
G|-------------------------|------------------------|
D|--7------7-----7-----7---|--3------3-----3-----3--|
A|--5-5555-5--55-5--55-5---|--1-1111-1--11-1--11-1--|
E|-------------------------|------------------------|
      xxxx    xx    xx          xxxx    xx    xx
e|-------------------------|------------------------|
B|-------------------------|------------------------|
G|-------------------------|------------------------|
D|--5------5-----5-----5---|--2------2-----2-----2--|
A|--3-3333-3--33-3--33-3---|--0-0000-0--00-0--00-0--|  x3
E|-------------------------|------------------------|
      xxxx    xx    xx          xxxx    xx    xx

e|-------------------------|------------------------|
B|-------------------------|------------------------|
G|-------------------------|------------------------|
D|--7------7-----7-----7---|------------------------|
A|--5-5555-5--55-5--55-5---|--5------5-----5-----5--|
E|-------------------------|--3-3333-3--33-3--33-3--|
      xxxx    xx    xx          xxxx    xx    xx
e|-------------------------|------------------------|
B|-------------------------|------------------------|
G|-------------------------|------------------------|
D|-------------------------|--7---------------------|
A|--7------7-----7-----7---|--5---------------------|  x1
E|--5-5555-5--55-5--55-5---|------------------------|
      xxxx    xx    xx
___________

Verse
_____

e|--------------------------------------------------|
B|--------------------------------------------------|
G|--7-----------------------------------7-----------|
D|--7-----------------------------------7-----------|
A|--5-----------------3333333333333333--5-----------|
E|--------------------------------------------------|
                      xxxxxxxxxxxxxxxx
________

Pre-Chorus
__________

e|------------------------|-------------------------|
B|------------------------|-------------------------|
G|------------------------|----------------676------|
D|--7-----7-----8-7-5-8---|--7-----7-----78---875---|
A|----0-0---0-0-----------|----0-0---0-0------------|
E|------------------------|-------------------------|
      x x   x x                x x   x x
e|------------------------|-------------------------|
B|------------------------|-------------------------|
G|------------------------|------------5------------|
D|--7-----7-----8-7-5-8---|--8----------------------|
A|----0-0---0-0-----------|-------------------------|
E|------------------------|-------------------------|
      x x   x x



************************************

| /   slide up
| \   slide down
| h   hammer-on
| p   pull-off
| ~   vibrato
| +   harmonic
| x   Mute note
| b   Bend
| pb  Pre-bend
| br  Bend release
| pbr Pre-bend release
| brb Bend release bend

************************************
Suggest correction new What's this?
You can suggest a correction to this tab. Community and Mods will review your correction and vote to approve or reject it.
comments
print report bad tab
guest
You may want to rate the tab now too:
select rating
Please do not post tabs as comments. Select "correction" instead!