Oops, an error
Loading. Please wait.

Swedish Pagans Tab

version 1
version 1

Intro

Interactive

241 views 27 this week
no commentswrite comment
1 2 3 4 5
3 more votes to show rating
add to favorites
launch autoscroll
font size
0
reset
how to read this tab
guitar tuner
Autoscroll
slow
fast
+/-
esc
set tempo
stop
Help us to improve Ultimate-Guitar.com Take our survey!
×
Author
This is my first tab ever. 

e|-------------------------------------------------------------------
B|-------------------------------------------------------------------
G|------9-------------------------------------9----------------------
D|-------------9-10--12--10-9-----------------------9-10--12--9------
A|--12-----12------------------12---10----12-----12------------------
E|-------------------------------------------------------------------

e|-------------------------------------------------------------------
B|-------------------------------------------------------------------
G|------9--------------------------------------9--10-----------------
D|-------------9-10--12--10-9------------------------12--10-9-10-----
A|--12-----12------------------12---10----12-------------------------
E|-------------------------------------------------------------------
Suggest correction
Give kudos to tab author, rate the tab!
1 2 3 4 5
comments
print report bad tab
guest
You may want to rate the tab now too:
select rating
Wanna post a correction for this tab? Suggest correction