Oops, an error
Loading. Please wait.

Anger On Reflection Tab

2,843 views 1 this week
no commentswrite comment
1 2 3 4 5
please rate
add to favorites
launch autoscroll
font size
0
reset
how to read this tab
guitar tuner
Autoscroll
slow
fast
+/-
esc
set tempo
stop
Help us to improve Ultimate-Guitar.com Take our survey!
×
Author
----------------------------------------------------------------------------               
Anger on reflection - Sacred Mother Tongue
---------------------------------------------------------------------------
Tabbed by:seanjtysoe

Tuning:standard C#

intro
c#|----------------------------------------------------------------------|
D |----------------------------------------------------------------------|
F |--------------------------------------something like this-------------|
C |--9-------------7-------------7/9---------------------------*3--------|
F#|--7-------------5-------------5/7-------------------------------------|
C#|--0-00-3h5-3h5----00-3h5-3h5-------0000-000-000-000-000---------------


c#|-----------------------------------------------------------------------|
D |-----------------------------------------------------------------------| 
F |-----------------------------------------------------------------------|
C |--9-------------7-------------9--2---5--7-----------9--2--3------------|
F#|--7-------------5-------------7--2---5--7--5h7p5----7--2--3------------|
C#|--0-00-3h5-3h5-----00-3h5-3h5----0---3--5--------7-----0--1------------|

verse riff
c#|-----------------------------------------------------------------------|
D |-----------------------------------------------------------------------| 
F |----------------------------------------------------5---7--------------|
C |--2----------------2--4--7---*3--2------------------5---7--------------|
F#|--2----------------3--5--8-------2------------------3---5--------------|
C#|--0-000-000-000-000--------------0-000-000-000-000--3---5--------------|

part c
c#|-----------------------------------------------------------------------|
D |-----------------------------------------------------------------------| 
F |------------------------------------------------*2---------------------|
C |--2--------------------3-2---------------------------------------------|
F#|--2--------------2-3-5---2----------2-3-2-5-2--------------------------|
C#|--0-00-00-00-3-5---------0-00-00-00-----------3------------------------|

pre chorus
c#|-----------------------------------------------------------------------|
D |----------8-7-----play part c now--------------------------------------| 
F |--2---5---7-7----------------------------------------------------------|
C |--2---5---5-5-------------------------*2----play intro bit--once-------|
F#|--0---3----------------------------------------------------------------|
C#|-----------------------------------------------------------------------|

this is the bridge bit before the solo
c#|-----------------------------------------------------------------------|
D |-----------------------------------------------------------------------| 
F |-----------------------------------------------------------------------|
C |-------------9-------------7------------5----------5-------------------|
F#|-----10p7-----10----9p5-----9----7p3-----7---3-2-3---3-2---------------|
C#|--00------00-----00-----00----00-----00------------------3-2-----


c#|-----------------------------------------------|
D |-----------------------------------------------|                        
F |-----------------------------------------------|
C |--2-----------*3--2----------------------------|
F# --2---------------2----------------------------|
C#|--0-000-000-000---0-0-3-0-6-5-3----------------|


chorus 
c#|-----------------------------------------------------------------------|
D |-----------------------------------------------------------------------| 
F |-----------------------------------------------------------------------|
C |--------------------------------2--1-------------------------2-2h5p2---|
F#|--------------------------------3--2------------------------3-------3--|
C#|-0-00-30-00-3030-3-5-7--0-00-30-------0-00-30-00-3030-3-5-7------------|

c#|-----------------------------------------------------------------------|
D |-----------------------------------------------------------------------| 
F |-----------------------------------------------------------------------|
C |---4-4h5p4---------------------------------5h7p5h7-4h5p4h5-------------|
F#|--5-------5------------------------------------------------------------|
C#|-------------0-00-30-00-3030-3-5-7-0-00-30-------------------0-00-30-00|

c#|-----------------------------------------------------------------------|
D |-----------------------------------------------------------------------| 
F |-----------------------------------------------------------------------|
C |-------------2-2h5p2-----4-4h5p4---------------------------------------|
F#|------------3--------3--5-------5--------------------------------------|
C#|-3030-3-5-7------------------------------------------------------------|


************************************

| /   slide up
| \   slide down
| h   hammer-on
| p   pull-off
| ~   vibrato
| +   harmonic
| x   Mute note
| b   Bend
| pb  Pre-bend
| br  Bend release
| pbr Pre-bend release
| brb Bend release bend

************************************
Suggest correction
What's this?
You can suggest a correction to this tab. Community and Mods will review your correction and vote to approve or reject it.
comments
We did not receive enough feedback on this tab! Please rate:
print report bad tab
1 2 3 4 5
guest
You may want to rate the tab now too:
select rating
Please do not post tabs as comments. Select "correction" instead!