Oops, an error
Loading. Please wait.

Self Submission Tab

929 views 3 this week
no commentswrite comment
1 2 3 4 5
please rate
add to favorites
launch autoscroll
font size
0
reset
how to read this tab
guitar tuner
Tab Pro tools
  • play this tab
  • loop segment
  • change instrument
  • show fretboard
  • metronome
×
Best way to learn
"Self Submission"
Autoscroll
slow
fast
+/-
esc
set tempo
stop
Contributor
Heres the §acred §ilence tab on their song "Self Submission".


Intro
(w/ dist. on 3X-4X crescendo on 4X)
E---------------------------------------  4X
B---------------------------------------
G---------------------------------------
D---------------------------------------
A--9---9---9---9---10---10---10---10----
E----7---7---7---7----7----7----7----7--


Verse one
(dist. on 1X)            (dist. on 2X w/ cresc. on 2X)   
E-------------------- 2X --------------------------------------- 2X 
B--------------------    ---------------------------------------    
G--------------------    ---------------------------------------    
D--------------------    ---------------------------------------
A--10---10---9---9---    --9---9---9---9---10---10---10---10----    
E-----8----8---8---8-    ----7---7---7---7----7----7----7----7--     

(dist. on 1X-2X)
E-------------------- 2X
B--------------------
G--------------------
D--------------------
A--10---10---9---9---
E-----8----8---8---8-

(no dist.)
E--------------------------
B--------------------------
G--------------------------
D--------------------------
A--10---10----10----10-----
E-----11---11----11----11--

(dist. 1X-2X)	
E--------------------------------------------------- 2X 
B---------------------------------------------------
G---------------------------------------------------
D---------------------------------------------------
A--12----12----12----12----11----11----11----11-----
E-----14----14----14----14----14----14----14----14--

(w/ dist.)
E-----------------------------xxx-- (the "x's" mean a full rest)
B-----------------------------xxx--
G-----------------------------xxx--
D-----------------------------xxx--
A--9--------9--------------9--xxx--
E-----7------------7----------xxx--


Chourus
(w/ dist.)
E--------------------------------------------------------------------- 
B---------------------------------------------------------------------
G---------------------------------------------------------------------
D---------------------------------------------------------------------
A--9-9-9-9-9-9-9-9--5-5-5-5-5-5-5-5--7-7-7-7-7-7-7-7--3-3-3-3-3-3-3-3-
E--7-7-7-7-7-7-7-7--3-3-3-3-3-3-3-3--5-5-5-5-5-5-5-5--1-1-1-1-1-1-1-1-

E--------------------------------------------------------------------- 
B---------------------------------------------------------------------
G---------------------------------------------------------------------
D---------------------------------------------------------------------
A----9--9--9-9-9-9----5--5--5-5-5-5----7--7--7-7-7-7--3-3-3-3-3-3-3-3-
E----7--7--7-7-7-7----3--3--3-3-3-3----5--5--5-5-5-5--1-1-1-1-1-1-1-1-


Verse two
E--------------------------------------- 1X  -------------------- 2X 
B---------------------------------------     -------------------- 
G---------------------------------------     -------------------- 
D---------------------------------------     -------------------- 
A--9---9---9---9---10---10---10---10----     --10---10---9---9---
E----7---7---7---7----7----7----7----7--     -----8----8---8---8-  

E--------------------------
B--------------------------
G--------------------------
D--------------------------
A--10---10----10----10-----
E-----11---11----11----11--
							   
E--------------------------------------------------- 2X 
B---------------------------------------------------
G---------------------------------------------------
D---------------------------------------------------
A--12----12----12----12----11----11----11----11-----
E-----14----14----14----14----14----14----14----14--

E-----------------------------xxx-- (the "x's" mean a full rest)
B-----------------------------xxx--
G-----------------------------xxx--
D-----------------------------xxx--
A--9--------9--------------9--xxx--
E-----7------------7----------xxx--


Chourus
(w/ dist.)
E--------------------------------------------------------------------- 
B---------------------------------------------------------------------
G---------------------------------------------------------------------
D---------------------------------------------------------------------
A--9-9-9-9-9-9-9-9--5-5-5-5-5-5-5-5--7-7-7-7-7-7-7-7--3-3-3-3-3-3-3-3-
E--7-7-7-7-7-7-7-7--3-3-3-3-3-3-3-3--5-5-5-5-5-5-5-5--1-1-1-1-1-1-1-1-

E--------------------------------------------------------------------- 
B---------------------------------------------------------------------
G---------------------------------------------------------------------
D---------------------------------------------------------------------
A----9--9--9-9-9-9----5--5--5-5-5-5----7--7--7-7-7-7--3-3-3-3-3-3-3-3-
E----7--7--7-7-7-7----3--3--3-3-3-3----5--5--5-5-5-5--1-1-1-1-1-1-1-1-


(I don't have the tab for the solo yet)


Verse three
E--------------------------------------- 2X  -------------------- 2X 
B---------------------------------------     -------------------- 
G---------------------------------------     -------------------- 
D---------------------------------------     -------------------- 
A--9---9---9---9---10---10---10---10----     --10---10---9---9---
E----7---7---7---7----7----7----7----7--     -----8----8---8---8-  

E--------------------------
B--------------------------
G--------------------------
D--------------------------
A--10---10----10----10-----
E-----11---11----11----11--
					   
E--------------------------------------------------- 2X 
B---------------------------------------------------
G---------------------------------------------------
D---------------------------------------------------
A--12----12----12----12----11----11----11----11-----
E-----14----14----14----14----14----14----14----14--

E-----------------------------xxx-- (the "x's" mean a full rest)
B-----------------------------xxx--
G-----------------------------xxx--
D-----------------------------xxx--
A--9--------9--------------9--xxx--
E-----7------------7----------xxx--


Chourus
(w/ dist.)
E--------------------------------------------------------------------- 
B---------------------------------------------------------------------
G---------------------------------------------------------------------
D---------------------------------------------------------------------
A--9-9-9-9-9-9-9-9--5-5-5-5-5-5-5-5--7-7-7-7-7-7-7-7--3-3-3-3-3-3-3-3-
E--7-7-7-7-7-7-7-7--3-3-3-3-3-3-3-3--5-5-5-5-5-5-5-5--1-1-1-1-1-1-1-1-

E--------------------------------------------------------------------- 
B---------------------------------------------------------------------
G---------------------------------------------------------------------
D---------------------------------------------------------------------
A----9--9--9-9-9-9----5--5--5-5-5-5----7--7--7-7-7-7--3-3-3-3-3-3-3-3-
E----7--7--7-7-7-7----3--3--3-3-3-3----5--5--5-5-5-5--1-1-1-1-1-1-1-1-


Closing
E---------------------------------------  6X (fade after 3X)
B---------------------------------------
G---------------------------------------
D---------------------------------------
A--9---9---9---9---10---10---10---10----
E----7---7---7---7----7----7----7----7--
comments
We did not receive enough feedback on this tab! Please rate:
print report bad tab
1 2 3 4 5
I want to post or [tab]
guest
You may want to rate the tab now too:
select rating
Please do not post tabs as comments. Select "correction" instead!