Oops, an error
Loading. Please wait.

Siempre Conmigo Tab

50 views 3 this week
no commentswrite comment
1 2 3 4 5
3 more votes to show rating
add to favorites
launch autoscroll
font size
0
reset
how to read this tab
guitar tuner
×
Best way to learn
"Siempre Conmigo"
Autoscroll
slow
fast
+/-
esc
set tempo
stop
este es el solo de la cansion espero ke les sirva


e-------------------------------------------------------------------
B----------------------------------------------------------------
G--------------------------------------------------11---------------
D-------11-13-11-13---11-13-11-13---13-11-13-11-13----13--------
A----13-----------------------------------------------------
E-------------------------------------------------------------


e-------------------------------------------------------------------
B----------------------------------------------------------------
G-----------------------------------------------------------------
D---11h13--11h13-11--11h13--11h13--------11-------------------------
A----------------------------------11-13----11---------------------
E-------------------------------------------------------------


e------------------------------------14----------------------------
B------------14-16-14-16-14-16-14-16----16-14-16-14-16-14-16/19------
G---------15--------------------------------------------------------
D-----------------------------------------------------------
A---------------------------------------------------------
E-------------------------------------------------------------


e------------14-16/18------14h16h18p16p14/11--------------------------
B---------16-------------------------------------------------------
G-----------------------------------------------------------------
D--------------------------------------------------------------
A---------------------------------------------------------
E-------------------------------------------------------------

buen0o aki se los dejo el solo alguna duda o alguna correccion
porfa escribanme
y disculpen si no0 lo escribi bien es una ayuda simplemente
 att  anthony._.10@
y si necesitan les ayud0o c0n un tutorial
Suggest correction
Give kudos to tab author, rate the tab!
1 2 3 4 5
comments
print report bad tab
guest
You may want to rate the tab now too:
select rating
Wanna post a correction for this tab? Suggest correction