Oops, an error
Loading. Please wait.

Te Puedo Ver Chords

22 views 1 this week
no commentswrite comment
1 2 3 4 5
3 more votes to show rating
add to favorites
launch autoscroll
font size
0
reset
transpose
0
reset
simplify chords
display chords
guitar tuner
×
Best way to learn
"Te Puedo Ver"
Autoscroll
slow
fast
+/-
esc
set tempo
stop
Para entonar esta cancion debes bajar un tono a la guitarra

ESTA CANCION VA DEDICADA PARA MI BEBITA ZORI.
YA SABES TE AMO MI AMOR

INTRO(D-Bm-G)

6----------------------------------
5----------------------------------
4----------------------------------
3--0-0---0---4---4--4--4------2----
2------2---0--------------2--------
1----------------------------------


D                            Bm           G
Que mejor es el vivir mas y mas cerca de ti
        D                      Bm         G
que mil años ir sin ti, sin poderte percibir
           D                  Bm     G
que no hay vida sin ti si no existe tu
       D                 Bm      G
que tu eres la razon de mi existir

C                         G                     D    Dsus
quien lo podra creer que toda la creacion la isiste tu
C                         G                   D
quien lo podra creer en todo lo que ve alrrededor

          Am 
te puedo ver
       C  
en la sonrrisa de un niño
        G                  D
en el abrazo de un amigo fiel
             Am
te puedo sentir
         C
como el sol en las mañanas
          G                    D
como el viento que sopla sobre mi

OTRA VEZ EL INTRO ACONPAÑADO DE LAS NOTAS (D-Bm-G)

CONTINUA LA MISMA SECUENCIA DEL ALPRIMERA PARTE


Van buscando solucion para la evolucion
no creyendo que hay un Dios ni tampoco un salvador
es mas ciego el que no quiere ver la realidad
que lo mas hermoso que hay es lo que eres tu

PARA EL FINAL DEBES UTILIZAR EL SLIDE

6-----------------------------
5-----------------------------
4-----------------------------
3-----------------------------
2--3-------3------------------
1----5-6-3---7-5-7-5-8-7------

6-------------------------------
5-------------------------------
4-------------------------------
3-------------------------------
2--3-------3--------------------
1----5-6-3---10-8-10-8-10-12-10-

ESTA ES OTRA MAS DE SACRIFICIO ESPERO QUE ESTE BIEN
CUALQUIER DUDA O COMENTARIO ESCRIBANME A MI E-MAIL
SUERTE A TODOS
POCO A POCO IRE SUBIENDO TODAS LAS CANCIONES DE SACRIFICIO
Suggest correction
Give kudos to tab author, rate the tab!
1 2 3 4 5
comments
print report bad tab
guest
You may want to rate the tab now too:
select rating
Wanna post a correction for this tab? Suggest correction