Oops, an error
Loading. Please wait.

Feed The Gold Tab

1,062 views 6 this week
no commentswrite comment
1 2 3 4 5
please rate
add to favorites
launch autoscroll
font size
0
reset
how to read this tab
guitar tuner
Autoscroll
slow
fast
+/-
esc
set tempo
stop
Help us to improve Ultimate-Guitar.com Take our survey!
×
Author
Difficulty
advanced
artist:Sacrilege        
Song:Feed the Gold
Tab By:Rob Vargo (SauronSatan666@hotmail.com)



tuning:C





  intro 0:00
  Guitar 1              riff 1 starts  4x 0:01
||---------------------|---------------------------------------------------------------------------------------------------||
||---------------------|---------------------------------------------------------------------------------------------------||
||---------------------|---------------------------------------------------------------------------------------------------||
||---------------------|-------------------------121212----------------------------------------161616--------1010-1212-----||
||-8-8-8-8-8-1010101010|-------101010-999-101010--------101010-999-101010--------131313-141414-------------------------1010||
||-6-6-6-6-6-8-8-8-8-8-|121212--------------------------------------------111111----------------------121212---------------||
||Guitar 2              riff 1 starts 4x                                               2nd/4th time->(trem 1)    (trem 3)
||---------------------|---------------------------------------------------------------------------------------------------||
||---------------------|---------------------------------------------------------------------------------------------------||
||---------------------|---------------------------------------------------------------------------------------------------||
||---------------------|9-9-9-9------------------9-9-9-9-------------------8-8-8-8--------8-8-8-8-----------------5-5-5-5--||
||-8-8-8-8-8-1010101010|7-7-7-7-----10101010-----7-7-7-7-----10101010------6-6-6-6--------6-6-6-6-----3-3-3-3-----3-3-3-3--||
||-6-6-6-6-6-8-8-8-8-8-|------------8-8-8-8------------------8-8-8-8----------------------------------1-1-1-1--------------||

  riff 2 2x 0:20
  guitar 1
||-------------------------------------------------------------------------------------------------------------------------||
||-------------------------------------------------------------------------------------------------------------------------||
||-------------------------------------------------------------------------------------------------------------------------||
||--------------------------999--------------------------------------------------------------------------------------------||
||--------101010-999-101010-----101010-999-101010--------101010-999-101010-----999-----999---------------------------------||
||-121212-----------------------------------------101010-------------------777-----777-------------------------------------||
||guitar 2
||-------------------------------------------------------------------------------------------------------------------------||
||-------------------------------------------------------------------------------------------------------------------------||
||-------------------------------------------------------------------------------------------------------------------------||
||------------------------------99999999999999999-777777777777777777777777-------------------------------------------------||
||-777777777777777777777777777---------------------------------------------999999999999999---------------------------------||
||-------------------------------------------------------------------------------------------------------------------------||

  play riff 1 2x 0:30

  riff 3.a 2x 0:39                                     riff 3.b 1x 0:49                                           riff 3.a 1x
  guitar 1                                                                                                         0:54 
||----------------------------------------------------|----------------------------------------------------------|---------||
||----------------------------------------------------|----------------------------------------------------------|---------||
||----------------------------------------------------|----55------------------------------55--------------------|---------||
||-----------------------------------------33333-55555|--------55----------55------33----------55-----66666-88888|---------||
||----8---5---8---33-77--55-22---8---5---8-11111-33333|33----------66--44------44------33----------66-44444-66666|---------||
||-55---5---5---5-------------55---5---5--------------|----------------------------------------------------------|---------||
||guitar 2                                            |                                                          |
||----------------------------------------------------|----------------------------------------------------------|---------||
||----------------------------------------------------|----------------------------------------------------------|---------||
||----------------------------------------------------|----5-------------------------------5---------------------|---------||
||----7--------------------------7---------33333-55555|--------5-------5-------3----------------5-----66666-88888|---------||
||--------8---5---7---3--55-22-------8---5-11111-33333|33----3---3-6-3---3-6-3---3-5----33----3---3-6-44444-66666|---------||
||-55---5---5---5---5---5-----55---5---5--------------|----------------------------------------------------------|---------||
  
  riff 4 2x 0:58
  guitar 1
||-------------------------------------------------------------------------------------------------------------------------||
||--------------------------------10---------------------------------------------------------------------------------------||
||-------------------------------------------------------------------------------------------------------------------------||
||-/10-10-9-9----------------9-10----12-(10)(12)-14-14-12-12-10------------------------------------------------------------||
||------------12-10-12-----------------------------------------------------------------------------------------------------||
||---------------------12-12-----------------------------------------------------------------------------------------------||
||guitar 2
||-------------------------------------------------------------------------------------------------------------------------||
||-------------------------------------------------------------------------------------------------------------------------||
||-------------------------------------------------------------------------------------------------------------------------||
||-------------------------------------------------------------------------------------------------------------------------||
||--3-------5--------5--777--3------------7-----------7------999-----------------------------------------------------------||
||--1---0---3---0----3--555--1------0-----5------0----5------777-----------------------------------------------------------||

  Play riff 2 2x 1:09

  riff 5 2x 1:19                        riff 6 2x 1:26
  guitar 1                              guitar 1
||------------------------------------||--------------------------------------------------------||
||------------------------------------||--------------------------------------------------------||
||------------------------------------||-------7---------------------------7--------------------||
||-------5-5-5-5-5-5-------4-4-4-4-4-4||---9-----10-9-10---------------9-----10-9-10---4---4-5-7||
||-2-2-2-3-3-3-3-3-3-2-2-2-2-2-2-2-2-2||-7---7-----------6---6-3-5-6-7---7-----------3---3------||
||-0-0-0-------------0-0-0------------||-------------------8------------------------------------||
||guitar 2                            ||guitar 2                                                ||
||------------------------------------||--------------------------------------------------------||
||------------------------------------||--------------------------------------------------------||
||------------------------------------||--------------------------------------------------------||
||-------5-5-5-5-5-5-------4-4-4-4-4-4||-9-9-9-9-9-9------------------9-9-9-9-9-9---------------||
||-2-2-2-3-3-3-3-3-3-2-2-2-2-2-2-2-2-2||-7-7-7-7-7-7---101010101010---7-7-7-7-7-7---9-9-9-9-9-9-||
||-0-0-0-------------0-0-0------------||---------------8-8-8-8-8-8------------------7-7-7-7-7-7-||

  play riff 4 2x 1:37

  riff 7 2x 1:47                                          play riff 4 2x    riff 8 3x 2:08
  guitar 1
||------------------------------------------------------||---------------||------------------------------------------------||
||------------------------------------------------------||---------------||------------------------------------------------||
||--------------------------------------------------9---||---------------||------------------------------------------------||
||------------9----7------------------9----/10-7-10---10||---------------||-------------------------------------5-5-5-7-7-7||
||-/8-8-10-10---10---777-7-/8-8-10-10---10--------------||---------------||-2-2---5-4-5-2-2---5-4-5-2-2---5-4-5-3-3-3-5-5-5||
||------------------------------------------------------||---------------||-0-0-0-3-2-3-0-0-0-3-2-3-0-0-0-3-2-3------------||

  solo 2:29 over riff 8
  guitar 1
||-------------------------------------------------------------------------------------------------------------------------||
||-------------------------------------------------------------------------------------------------------------------------||
||-9-7--------------------9-7--------------------------9-7-------------------9-7-------------------------------------------||
||-----9-55-55-7-9-5-7-9-----9-55-55-7-9-9h12p9-7----------9-55-55-7-9-5-7-9-----9-55-55-7-9-9h12p9-7-5h7p5-4--------------||
||------------------------------------------------10-9---------------------------------------------------------------------||
||-------------------------------------------------------------------------------------------------------------------------||
  
  play riff 8 3/4x 2:44 and go into riff 3.a 2x 2:50 
  play riff 3.b 1x 2:59
  play riff 3.1 1x 3:04
  play riff 4 2x 3:09
  play riff 7 2x 3:19
  play riff 4 2x 3:29
  play riff 2 2x 3:39
  play riff 1 1 3/4x 3:49
  end with intro 3:57
Suggest correction
Give kudos to tab author, rate the tab!
1 2 3 4 5
comments
print report bad tab
guest
You may want to rate the tab now too:
select rating
Wanna post a correction for this tab? Suggest correction