Oops, an error
Loading. Please wait.

The Sting Tab

19 views 12 this week
no commentswrite comment
1 2 3 4 5
3 more votes to show rating
add to favorites
launch autoscroll
font size
0
reset
how to read this tab
guitar tuner
Autoscroll
slow
fast
+/-
esc
set tempo
stop
Help us to improve Ultimate-Guitar.com Take our survey!
×
Author
Difficulty
About this tab version
Made the format easier to read. Was this info helpful? Yes No
Tempo = 180


[Intro] (Guitar 1)

e |----------------|----------------|----------------|
B |----------------|----------------|----------------|
G |----------------|----------------|----------------|
D |--9--6--4--4b---|--4-------------|----------------|
A |----------------|-----6--2-------|----------------|
E |----------------|----------------|----------------|


e |----------------|----------------|----------------|
B |----------------|----------------|----------------|
G |----------------|----------------|----------------|
D |--9--6--4--4----|--4-------------|-----------0----|
A |----------------|-----6--2-------|-----6/9--------|
E |----------------|----------------|----------------|


e |----------------|----------------|----------------|
B |----------------|----------------|----------------|
G |----------------|----------------|----------------|
D |--9--6--4--4----|--4-------------|----------------|
A |----------------|-----6--2-------|-----2----------|
E |----------------|----------------|----------------|


e |----------------|----------------|----------------|
B |----------------|----------------|----------------|
G |----------------|----------------|----------------|
D |--9--6--4--4----|--4--------9----|----------------|
A |----------------|-----6--2-------|--11------------|
E |----------------|----------------|-----9----------|


(Guitar 2)

E |----------------|----------------|----------------|
B |----------------|----------------|----------------|
G |--9-----8--6----|-----4----------|----------------|
D |----------------|--------6-------|--7-------------|
A |----------------|----------------|-----9----------|
E |----------------|----------------|----------------|


(Rhythm Guitar)

       Abm       B     A                E
e |--4--4--4-----2-----5-------|--5--/--0--0----|-----0--0----|
B |--4--4--4-----4-----5-------|--5--/--0--0----|-----0--0----|
G |--4--4--4-----4-----6-------|--6--/--1--1----|-----1--1----| x3
D |--6--6--6-----4-----7-------|--7--/--2--2----|-----2--2----| 
A |--6--6--6-----2-----7-------|--7--/--2--2----|-----2--2----|
E |--4--4--4-----------5-------|--5--/--0--0----|-----0--0----|

       Abm       B     A                Dbm
e |--4--4--4-----2-----5-------|--5-----4--4----|--4--4----------|
B |--4--4--4-----4-----5-------|--5-----5--5----|--5--5----------|
G |--4--4--4-----4-----6-------|--6-----6--6----|--6--6----------|
D |--6--6--6-----4-----7-------|--7-----6--6----|--6--6----------|
A |--6--6--6-----2-----7-------|--7-----4--4----|--4--4----------|
E |--4--4--4-----------5-------|--5-------------|----------------|


[Verse 1] (Guitar 1)

e |----------------|----------------|----------------|
B |----------------|----------------|----------------|
G |----------------|----------------|----------------|
D |--9--6--4--4b---|--4-------------|----------------|
A |----------------|-----6--2-------|-----2----------|
E |----------------|----------------|----------------|


e |----------------|----------------------------|
B |----------------|----------------------------|
G |----------------|----------------------------|
D |--9--6----------|----------------------------|
A |--------4--4----|--4-----4-----6--/--9-------|
E |----------------|----------------------------|


[Chorus] (Guitar 1)
(Listen for strumming pattern)

e |----------------|----------------|
B |----------------|----------------|
G |----------------|--9--9--9--9----|
D |--9--9--9--9----|--9--9--9--9----|
A |--9--9--9--9----|--7--7--7--7----|
E |--7--7--7--7----|----------------|


e |----------------|----------------|----------------|----------------|
B |----------------|----------------|----------------|----------------|
G |----------------|--11-11-11-11---|----------------|--9--9--9--9----|
D |--6--6--6--6----|--11-11-11-11---|--9--9--9--9----|--9--9--9--9----|
A |--6--6--6--6----|--9--9--9--9----|--9--9--9--9----|--7--7--7--7----|
E |--4--4--4--4----|----------------|--7--7--7--7----|----------------|


e |----------------|----------------|----------------|----------------|
B |----------------|----------------|----------------|----------------|
G |--9--8--8--8/---|--14-14-14-14---|----------------|--9--9--9--9----|
D |--9--8--8--8/---|--14-14-14-14---|--9--9--9--9----|--9--9--9--9----|
A |--7--6--6--6/---|--12-12-12-12---|--9--9--9--9----|--7--7--7--7----|
E |----------------|----------------|--7--7--7--7----|----------------|


e |----------------|----------------|----------------|----------------|
B |----------------|----------------|----------------|----------------|
G |----------------|--14-14-14-14---|----------------|--9--9--9--9----|
D |--9--9--9--9----|--14-14-14-14---|--9--9--9--9----|--9--9--9--9----|
A |--9--9--9--9----|--12-12-12-12---|--9--9--9--9----|--7--7--7--7----|
E |--7--7--7--7----|----------------|--7--7--7--7----|----------------|


e |----------------|----------------|
B |----------------|----------------|
G |--9--8--8--8/---|--14-14-14-14---|
D |--9--8--8--8/---|--14-14-14-14---|
A |--7--6--6--8/---|--12-12-12-12---|
E |----------------|----------------|


Outro of Chorus 1 (Guitar 1)

e |----------------|----------------|
B |----------------|----------------|
G |----------------|----------------|
D |--9--6----------|----------------|
A |--------4--4/---|----2-----------|
E |----------------|----------------|


[Verse 2] (Guitar 1)

e |----------------|----------------|----------------|
B |----------------|----------------|----------------|
G |----------------|----------------|----------------|
D |--9--6--4--4b---|--4-------------|----------------|
A |----------------|-----6--2-------|----------------|
E |----------------|----------------|----------------|


e |----------------|----------------|
B |----------------|----------------|
G |----------------|----------------|
D |--9--6--4--4----|--4-------------|
A |----------------|-----2-/-4------|
E |----------------|----------------|


[Chorus 2] (same as chorus 1)


Middle 8 (Guitar 2)

e |----------------|----------------------------|----------------|----------------|
B |--12-9-----9----|--7-------------------------|----------------|----------------|
G |--------8-------|--------------------9--8----|--9/11--9--8----|----------------|
D |----------------|----------------------------|----------------|--9-------------|
A |----------------|----------------------------|----------------|----------------|
E |----------------|----------------------------|----------------|----------------|

e |----------------|----------------------------|----------------|----------------|
B |--12-9-----9----|--7-------------------------|----------------|----------------|
G |--------8-------|--------------------9--8----|--9/11--9--8----|--9-------------|
D |----------------|----------------------------|----------------|-----------13---|
A |----------------|----------------------------|----------------|----------------|
E |----------------|----------------------------|----------------|----------------|


e |----------------|----------------------------|----------------|----------------|
B |--12-9-----9----|--7-----------7-------------|----------------|----------------|
G |--------8-------|--------------------9--8----|--9/11--9--8----|----------------|
D |----------------|----------------------------|----------------|--9--------11---|
A |----------------|----------------------------|----------------|----------------|
E |----------------|----------------------------|----------------|----------------|


e |----------------|----------------------------|----------------|
B |--12-9-----9----|--7-------------------------|----------------|
G |--------8-------|--------------------9--8----|--9/11--9--8----|
D |----------------|----------------------------|----------------|
A |----------------|----------------------------|----------------|
E |----------------|----------------------------|----------------|


e |----------------------------|----------------|----------------|
B |----------------------------|----------------|----------------|
G |--9-----8-----8h9p8---------|--9--8--6--4----|----------------|
D |----------------------------|----------------|--4/6-----------|
A |----------------------------|----------------|----------------|
E |----------------------------|----------------|----------------|


[Outro] (Guitar 1)

e |----------------|----------------|-------|
B |----------------|----------------|-------|
G |----------------|----------------|-------|
D |--9--6--4--4b---|--4-------------|-------|
A |----------------|-----6--2-------|-------|
E |----------------|----------------|-------|


e |----------------|----------------|----------------|
B |----------------|----------------|----------------|
G |----------------|----------------|----------------|
D |--9--6--4--4----|--4-------------|-----------0----|
A |----------------|-----6--2-------|-----6/9--------|
E |----------------|----------------|----------------|


e |----------------|----------------|----------------|
B |----------------|----------------|----------------|
G |----------------|----------------|----------------|
D |--9--6--4--4----|--4-------------|----------------|
A |----------------|-----6--2-------|-----2----------|
E |----------------|----------------|----------------|


e |----------------|----------------|----------------|
B |----------------|----------------|----------------|
G |----------------|----------------|----------------|
D |--9--6--4--4----|--4-------------|-----------0----|
A |----------------|-----6--2-------|-----6/9--------|
E |----------------|----------------|----------------|


e |----------------|----------------|----------------|
B |----------------|----------------|----------------|
G |----------------|----------------|----------------|
D |--9--6--4--4----|--4-------------|----------------|
A |----------------|-----6--2-------|-----2----------|
E |----------------|----------------|----------------|


e |----------------|----------------|----------------|
B |----------------|----------------|----------------|
G |----------------|----------------|----------------|
D |--9--6--4--4----|--4-------------|-----------0----|
A |----------------|-----6--2-------|-----6/9--------|
E |----------------|----------------|----------------|


e |----------------||
B |----------------||
G |----------------||
D |--9--6--4--4----||
A |----------------||
E |----------------||

********************************************

Legend
h - hammer on
p - pull off
b - bend
/ - slide

********************************************
Suggest correction
Give kudos to tab author, rate the tab!
1 2 3 4 5
comments
print report bad tab
guest
You may want to rate the tab now too:
select rating
Wanna post a correction for this tab? Suggest correction