Oops, an error
Loading. Please wait.

Oh Phelous Bass Tab

230 views 1 this week
no commentswrite comment
1 2 3 4 5
2 more votes to show rating
add to favorites
launch autoscroll
font size
0
reset
guitar tuner
Autoscroll
slow
fast
+/-
esc
set tempo
stop
Help us to improve Ultimate-Guitar.com Take our survey!
×
Author
Difficulty
Tuning
advanced
D# G# C# F# A# D#
Oh Phelous
Bass tab
Tuning: a half step down

Intro

G|-----------12h14-12----12---------------------------12-----------|
D|--------------------14------14-12--14--14--12-13-14----14--------|
A|-----------------------------------------------------------------|
E|-0---------------------------------------------------------------|

G|-----------16-14-12-14--12----12---------------------------------|
D|---------------------------14------14---12-----------------------|
A|------------------------------------------------0-5-0-6-0-7------|
E|-0---------------------------------------------------------------|

wah wah

G|-------------------------------------------------7-8-9-----------|
D|---------------------5------------------------5------------------|
A|-------7---0-5-0-7-0----7-5--------7--0-5-0-7--------------------|
E|-0---------------------------0-----------------------------------|

G|-----------------------------7-8-9--12-13-14---------------------|
D|---------------------5-------------------------------------------|
A|-------7---0-5-0-7-0----7-5--------------------------------------|
E|-0---------------------------------------------0-2-0-3-0-4-0-5---|

VERSE

G|--------------------------------------------------|
D|--------------------------------------------------|
A|-7------7--5------5------------12---------12-12---|
E|---------------------8------8---------------------|

G|--------------------------------------------------|
D|--------------------------------------------------|
A|-7------7--5------5-------------------------------|
E|---------------------8------8--7--7--5--5--5--5---|

G|---------------------------------------------------------------------------------------------|
D|-----------------------------------------------10--------------------------------------------|
A|-7-7-7-7-7-7-7-7----5-5-5-5-5-5-5-5----------------------------------------------------------|
E|---------------------------------------8-8-8-8----8-8-8----7-7-7-7-7-7-7-7-5-5-5-5-5-5-5-5---|

CHORUS (they're eating her)
(pop and slap)

G|------------------------------------------------------4-------|
D|------2---2--------2---2-----------2---2----------------------|
A|---------------------------------------------------------5----|
E|-0--x---x---0---x----x---3-2-0--x----x---0--8--0-x-x----------| X3

G|--------------------------------------------------------------|
D|--------------------------------------------------------------|
A|--------------------------------------------------------------|
E|-0-0--------0--0----------------------------------------------|

BRIDGE

G|----------------------------------------------------------|
D|----------------------------------------------------------|
A|-7------5--------------------7------5---------------------|
E|---------------8------7--------------------8------7---5---|

Flanger

G|-----9------7-------------------------9-------7-----------------------|
D|---9------7----------10-------9-----9-------7----------10-----9---7---|
A|-7----7-5-----5---10--------9-----7-----7-5-----5---10----------------|
E|----------------8-------8-7-----7-----------------8-------8-7---5-----|

BRIDGE 2
(slap and pop)

G|------------------------5~~-------------------------7~~----|
D|------------------------5~~-------------------------7~~----|
A|-----------------------------------------------------------|
E|-0--0----0--0----0-x-x-------0--0----0--0----0-x-x---------|

G|------------------------6~~--------------------------------|
D|------------------------6~~----------------5-------4-------|
A|-----------------------------------------------------------|
E|-0--0----0--0----0-x-x-------0--0----0-x-x---0-x-x---------|

G|------------------------5~~-------------------------7~~----|
D|------------------------5~~-------------------------7~~----|
A|-----------------------------------------------------------|
E|-0--0----0--0----0-x-x-------0--0----0--0----0-x-x---------|

G|------------------------6~~--------------------------------|
D|------------------------6~~----------------5-------4-------|
A|-----------------------------------------------------------|
E|-0--0----0--0----0-x-x-------0--0----0-x-x---0-x-x---------|

CHORUS
(slap and pop)

G|------------------------------------------------------4-------|
D|------2---2--------2---2-----------2---2----------------------|
A|---------------------------------------------------------5----|
E|-0--x---x---0---x----x---3-2-0--x----x---0--8--0-x-x----------| X3

G|--------------------------------------------------------------|
D|--------------------------------------------------------------|
A|--------------------------------------------------------------|
E|-0-0--------3--3-------------0~~~~~~~~~~~~--------------------|
Suggest correction
Give kudos to tab author, rate the tab!
1 2 3 4 5
comments
print report bad tab
guest
You may want to rate the tab now too:
select rating
Wanna post a correction for this tab? Suggest correction