Oops, an error
Loading. Please wait.

Cherish The Day Bass

version 1
version 1

Whole song

8,949 views 6 this week
2 commentsread comments
1 2 3 4 5
x 4
add to favorites
launch autoscroll
font size
0
reset
guitar tuner
×
Best way to learn
"Cherish The Day"
Autoscroll
slow
fast
+/-
esc
set tempo
stop
Author
Song:Cherish The Day

Artist:Sade

Album:Love Deluxe

Tabber:T4-TURBO

Riff:just play every once in while
g:-----------|
d:15p13----14|
a:------15---|
e:-----------|


Main Riff About 1:37 With synth
g:----------------------------------------|
d:----------------------------------------|
a:----------------------------------------|
e:5-2-0--0-0-2-5-5-2-0--5-2-0--0-2-5-5-2-0|

just repeat
Suggest correction
comments
print report bad tab
2 comments total.
0 reply
fonsdavid 212 Apr 30, 2016 11:38 AM

g:5-0--------0-5-5-0--|
d:--------------------|
a:----3--3-3---------3|
e:--------------------|

0 reply
fonsdavid 212 Apr 30, 2016 11:39 AM

g:5-0--------0-5-5-0--|
d:--------------------|
a:----3--3-3---------3|
e:--------------------|

This is it

guest
You may want to rate the tab now too:
select rating
Wanna post a correction for this tab? Suggest correction