Oops, an error
Loading. Please wait.

Fear Bass Tab

by Sade
498 views 1 this week
no commentswrite comment
1 2 3 4 5
3 more votes to show rating
add to favorites
launch autoscroll
font size
0
reset
guitar tuner
Autoscroll
slow
fast
+/-
esc
set tempo
stop
Help us to improve Ultimate-Guitar.com Take our survey!
×
Author
Difficulty
novice
-------------------------------------------------------------------------------
              		                 Fear - Sade
-------------------------------------------------------------------------------

Tabbed by: TBone142
e-mail: tbone142@freemail.hu

Tuning: standard EADG

Intro:
G|---------------------9/10-------------------------------------9/12--10--10~|
D|7----7--9--10--9--7----------------------7----7--9--10--9--7---------------|
A|----------------------------8--8----8-10-----------------------------------|
E|---------------------------------------------------------------------------|

Verse 1:
G|---------------------------------------------------------------------------|
D|--------5--4\--------------------5--4\-------------------------------------|
A|---------------------------------------------------------------------------|
E|5----5---------1----1--3-5----5---------1----------------------------------|

G|---------------------------------------------------------------------------|
D|-------------5--4\--------------------5--4\--------------------------------|
A|---------------------------------------------------------------------------|
E|1--3-5----5---------1----1--3-5----5---------1-----------------------------|

G|---------------------------------------------------------------------------|
D|----------7/8---------8/10-------------------------------------------------|
A|-----5--------------8--------------5---------------------------------------|
E|1--3-----------6-----------5----55-----------------------------------------|

Chorus:
G|---------------------------------------------------------------------------|
D|-------7/8---------8/10----------------------------------------------------|
A|--5--------------8--------------5------------------------------------------|
E|5-----------6-----------5----55--------------------------------------------|

Saxophone solo:
G|---------------------------------------------------------------------------|
D|---------------------------------------------------------------------------|
A|-----------7-8----8-7--------------7-8-------------------------------------|
E|5----5--8-------------7-5----5--8------------------------------------------|

Verse 2:
G|---------------------------------------------------------------------------|
D|--------------5--4\-------------------5--4\--------------------------------|
A|8-7------------------------------------------------------------------------|
E|----8-5----5--------1----1--3-5----5--------1------------------------------|

Solo:
G|-----------------------------------------------------------------2---------|
D|------------------------------------3--3--2--22--2222--2--3--3-5----5--3\--|
A|---------------------------------------------------------------------------|
E|1--3-5----5-3----33-5----5--3----1/2---------------------------------------|

Verse 3:
G|---------------------------------------------------------------------------|
D|--------5--4\-------------------5--4\--------------------------------------|
A|---------------------------------------------------------------------------|
E|5----5--------1----1--3-5----5--------1------------------------------------|

Chorus:
G|---------------------------------------------------------------------------|
D|-------7/8---------8/10-----------------------7----------------------------|
A|--5--------------8--------------5----5--7--8-----8-7-5---------------------|
E|5-----------6-----------5----55--------------------------------------------|

Outro:
G|---------------------------------------------------------------------------|
D|7/8----------8/10----------------------------------------------------------|
A|----------8----------------------------------------------------------------|
E|-----6------------5--------------------------------------------------------|


===============================================================================
Notes: 

This song doesn't really have a so called 'structure', rather a kind of flow,
but I split it up to be easier to follow.

If You have problems with this tab, write me a mail what's wrong with it
instead of giving it a bad rating! It'd better for everyone! Thx!


| /  slide up
| \  slide down
| h  hammer-on
| p  pull-off
| ~  vibrato
| +  harmonic
| x  Mute note
===============================================================================
Suggest correction
Give kudos to tab author, rate the tab!
1 2 3 4 5
comments
print report bad tab
guest
You may want to rate the tab now too:
select rating
Wanna post a correction for this tab? Suggest correction