Oops, an error
Loading. Please wait.

No Ordinary Love Bass Tab

version 1
version 1

Whole song

by Sade
11,011 views 21 this week
2 commentsread comments
1 2 3 4 5
accurate
x 5
add to favorites
launch autoscroll
font size
0
reset
guitar tuner
Autoscroll
slow
fast
+/-
esc
set tempo
stop
Help us to improve Ultimate-Guitar.com Take our survey!
×
Author
Song:No Ordinary Love
Artist:Sade
Album:Love Deluxe
Tabber:T4-TURBO

Riff:
g:---------------------------------|
d:------------------------2--------|
a:2----2-0---2-5---2--222---0---2-5|
e:---------1------------------1----|

Var-e-a-shen:
g:---------------------|
d:----------2----------|
a:2-0-2-0-2---2-0---2-5|
e:----------------1----|
^Only play every once in a while 

and just repeat the riff through the whole song
just tro in the other part whenever you to cause its per-t-much
impossible to time......
...............
...............
...............
...............
...............Enjoy!!!
Suggest correction
comments
print report bad tab
2 comments total.
0 reply
tymail707 10 wrote on February 25 2014, 02:29 am, edited at 02:29 am

I hear it more like thisG|---------------------------4------D|------------0---------------------A|--2---0-2--------2-0-2-0-2--------E|----2-----------------------------

0 reply
tymail707 10 wrote on February 25 2014, 02:30 am

sorry, didn't know how to use the tab kw


G|--------------------------------4--
D|--------------0--------------------
A|--2-----0--2-----2--0--2--0--2-----
E|-----2-----------------------------

guest
You may want to rate the tab now too:
select rating
Wanna post a correction for this tab? Suggest correction