Oops, an error
Loading. Please wait.

Not As Cool As I Thought You Were Tab

by Sade
535 views 1 this week
no commentswrite comment
1 2 3 4 5
please rate
add to favorites
launch autoscroll
font size
0
reset
how to read this tab
guitar tuner
Autoscroll
slow
fast
+/-
esc
set tempo
stop
Help us to improve Ultimate-Guitar.com Take our survey!
×
Author
Sade - Not as cool as I thought you were

Guitar 1 (Clean)
e|-----3--------6--------------0---------------------------12----------------|
B|-------3---------3-------------2-----------4---6----8-------9--------------|
G|---------0-----------------------2-------3---5---7------------10-----------|
D|-------------------------5---------2----------------------------11---------|
A|---------------------10-------------------------------------------12-------|
E|--3------------------------------------------------------------------------|
Guitar 2: Distortion (verse) (strum chords)
e|---------------------------------------------------------------------------|
B|----------------------------3----------------------------------------------|
G|-------------7--------------2-----------9----------------------------------|
D|-2-----------3--------3-----4-----------9----------------------------------|
A|-2-----------3--------3-----------------6----------------------------------|
E|-0--------------------5----------------------------------------------------|
Chorus Riff
e|---------------------------------------------------------------------------|
B|---------------------------------------------------------------------------|
G|--------------------------6-9------4p2-5p2-6p2-----------------------------|
D|--6-9-0-0-0-0-7-1-0-0-0-0-----7-1------------------------------------------|
A|---------------------------------------------------------------------------|
E|---------------------------------------------------------------------------|
Breakdown
e|-----------------------------56464----------------0------------------------|
B|-----------------------------------------------9-----7---------------------|
G|---------3--3---6p0h4h9p0h------------------68--------5----------------2---|
D|--2-2----3--3---------------------8------69-------------7------------2-2---|
A|--2-2----1--1--------------------------9------------------6----------0-0---|
E|--0-0-------------------------------9-----------------------71-------0-0---|
Bridge Guitar 1 Clean (repeat)
e|--3---------------3-------------0-------1-----0--------4---------------4---|
B|--3--------2--------3------3------0-------0-----1------------2-------------|
G|--5----------3-----------2----------0-------0-----2---------------2--------|
D|--6------------------------------------------------------------9-----------|
A|--X-------------------------------------------------------3----------1-----|
E|--3--------------------------------------------------5--------------------1|
Outtro (Distorted)
e|-------------------------------------16----------------------16------------|
B|---12-13--15-----------15-----------------------10--9-7-5-4----17----------|
G|-------------12-----12-----12-12-14------12-----------------------15-------|
D|----------------16--------------------------14-----------------------12----|
A|------------------------------------------------------------------------12-|
E|--------------------------------------------------------------------------0|

Lyrics:
So you thought you were cool
But youre not
So you thought I was a fool
But im hot

Chorus:
So youre as not as cool as you thought you were
And I left my keys in fridge
But theres nothing you can do
But DIE! (breakdown)
Suggest correction
Give kudos to tab author, rate the tab!
1 2 3 4 5
comments
print report bad tab
guest
You may want to rate the tab now too:
select rating
Wanna post a correction for this tab? Suggest correction