Oops, an error
Loading. Please wait.

Nothing Can Come Between Us Bass Tab

version 1
version 1

Whole song

Interactive

by Sade
5,326 views 3 this week
1 commentread comment
1 2 3 4 5
2 more votes to show rating
add to favorites
launch autoscroll
font size
0
reset
guitar tuner
Autoscroll
slow
fast
+/-
esc
set tempo
stop
Help us to improve Ultimate-Guitar.com Take our survey!
×
Author
Song:Nothing Can Come Between Us

Artist:Sade


Main:
g:------------------|
d:------------------|
a:----------1--1-1--|
e:1-X1-X1-5--------5|

Bridge:
g:--------------|
d:--------------|
a:--------------|
e:1--1x1--1--1x1|

2nd:
g:-------------------------|
d:------9-7-5-7------------|
a:7-7-9---------7-9-12--3-5|
e:-------------------------|






Enjoy
Suggest correction
Give kudos to tab author, rate the tab!
1 2 3 4 5
comments
print report bad tab
1 comment total.
0 reply
alawrisuk 219 Jun 16, 2013 09:03 PM

I hear the 2nd part as:

2nd:
g:-------------------------|
d:------8-6-6-------8------|
a:8-6-8---------6-8-----3-6|
e:-------------------------|

guest
You may want to rate the tab now too:
select rating
Wanna post a correction for this tab? Suggest correction