Oops, an error
Loading. Please wait.

Smooth Operator Bass Tab

version 2
version 2

Whole song

Interactive

by Sade
30,844 views 15 this week
no commentswrite comment
1 2 3 4 5
x 4
add to favorites
launch autoscroll
font size
0
reset
guitar tuner
Autoscroll
slow
fast
+/-
esc
set tempo
stop
Help us to improve Ultimate-Guitar.com Take our survey!
×
[Intro]
G|---5-4-------------------------------------------------|
D|-------5-4---------------------------------------------|
A|-----------5-4-----------------------------------------|
E|-------------------------------------------------------|

[Part 1]
G|-------------------------------------------------------|
D|-------------------------------------------------------|
A|------5---4---3---3-2----------------------------------|
E|--------5---5---5-----5--------------------------------|

[Part 2]
G|-------------------------------------------------------|
D|-------------------------------------------------------|  (x3)
A|----------------5-55-55-55-----------------------------|
E|-----33------55----------------------------------------|

[Solo]
G|-------------------12-14-15--14--12-----------12-------|
D|----12-12-12-14-15-------------------15-14-15----------|
A|-------------------------------------------------------|
E|-------------------------------------------------------|

G|-----15-14-12-14-15-14-12-14-17-19--17----17----17-19--|
D|-12------------------------------------20----20--------|
A|-------------------------------------------------------|
E|-------------------------------------------------------|

G|---17---17---------------17----------------------------|
D|------20--20-19-20-19-20----20-19-17-19-17-20-19-------|
A|-------------------------------------------------20----|
E|-------------------------------------------------------|
Suggest correction
comments
print report bad tab
guest
You may want to rate the tab now too:
select rating
Wanna post a correction for this tab? Suggest correction