Oops, an error
Loading. Please wait.
We have an official Smooth Operator tab made by UG professional guitarists. Check out the tab »
×
by Sade
21,912 views 108 this week
1 commentread comment
1 2 3 4 5
x 11
add to favorites
×
Save as Personal and add changes to this tab that will be seen only by you. Learn more ›
×
You can save this tab as Personal to edit and correct it or add notes. All changes will be seen only by you. Learn more »
launch autoscroll
font size
0
reset
guitar tuner
edit
Autoscroll
slow
fast
+/-
esc
set tempo
stop
Author
[Intro]

G|--5p4------------------------|
D|--------5p4------------------|
A|--------------5p4------------|
E|-----------------------------|

G|----------------------------------------------------------------------------|
D|----------------------------------------------------------------------------|
A|-5----5--4-------3-------3--2----------5----5--4-------3-------3--2--3----4-|
E|------------5-------5------------3----------------5-------5-----------------|


[VERSES & CHORUS]

G|---------------------------------------------------------------------------|
D|---------------------------------------------------------------------------|
A|5---5-----------------------3----5-----5-------------------------3------5--|
E|------5-----5--3-----3--5-----------------5------5--3------3--5------------|


[PRE CHORUS:]

G|---------------------------------------------------------------------------|
D|------------5-------------------7------------------------------------------|
A|---------5-----5-------------7-----7-----5------5--4----4--3----3--2-------|
E|--3---------------3----5--------------5-------------------------------0--1-|

G|----------------------------------------------------------------------7----|
D|------------5-------------------7------------------------------------------|
A|---------5-----5-------------7-----7-----5------5--5----5--5----5--5-------|
E|--3---------------3----5--------------5----------------------------------0-|

G|----------------------------------------------------------------|
D|------------5--------------------7------------------------------|
A|---------5-----5--------------7-----7--------5---------3--5-----|
E|--3---------------3----5---------------5------------5-----------|



[Solo]

G|------------------12--14h15--14--------12--------------12------------|
D|--12--12--14--15---------------------------15--14--15------12--------|
A|---------------------------------------------------------------------|
E|---------------------------------------------------------------------|


G|---14/15--14--12--14--15--14--12--14--17--19v---17--15--17--15--17/19--19v-|
D|12-------------------------------------------------------------------------|
A|---------------------------------------------------------------------------|
E|---------------------------------------------------------------------------|



G|--17--15--17--15--14--15--14--15--17--15--14--12--------------12/14\----|
D|--------------------------------------------------15--14--15------------|
A|---------------------------------------------------------------------5--|
E|------------------------------------------------------------------------|


*******************************

   p  = pull off
    / = slide up
   h  = hammer on
   v  = vibrato
   \  = slide down

*******************************


The VERSE/CHORUS section is just the basic idea to start with.
Listen to the tune and you will easily find the little fills Paul uses to
funk it up. Doesn't have to be identical to sound really good.
Just stick to the melody and remember the song is in Dm. This is my
first tab ever, so please rate and comment/correct it!
One of my favorite songs and artists, so it was worth pouring over to
try to give the most helpful & accurate tab.

            
            
Suggest correction
Creating personal tab
Creating personal tab
You can edit any tab online and save it as your Personal.

You can edit, replace or remove any tab part or add personal notes – all changes will be seen only by you.

Personal tabs can be accessed anytime from any device, even offline.
Learn more »
comments
print report bad tab
1 comment total.
0 reply
tobyehillier 10 Jul 29, 2015 02:42 PM

The intro is 6p5 on the D string. Also sounds like slide downs to me :)

guest
You may want to rate the tab now too:
select rating
Wanna post a correction for this tab? Suggest correction