Oops, an error
Loading. Please wait.

Fight Or Die Tab

947 views 1 this week
no commentswrite comment
1 2 3 4 5
please rate
add to favorites
launch autoscroll
font size
0
reset
how to read this tab
guitar tuner
Autoscroll
slow
fast
+/-
esc
set tempo
stop
Help us to improve Ultimate-Guitar.com Take our survey!
×
Song: Fight Or Die
Band: Sadus
Album: Illusions/Chemical Exposure
Tuning: E Standard

Riff A
|-----------------------------|-----------------------------|
|-----------------------------|-----------------------------|
|-----------------------------|-----------------------------|
|-----------------------------|-----------------------------|
|-------------------------2---|-------------------------3---|
|--0--0-0-0--0-0-0--0-0-0-----|--0--0-0-0--0-0-0--0-0-0-----|

|-----------------------------|-------------------------------|
|-----------------------------|-------------------------------|
|-----------------------------|-------------------------------|
|-----------------------------|-------------------------------|
|-------------------------2---|-----------------------1h2p1h2-|
|--0--0-0-0--0-0-0--0-0-0-----|--0--0-0-0--0-0-0--0-0---------|

Riff B
|--------------------------------------------------------------|
|--------------------------------------------------------------|
|--------------------------------------------------------------|
|---------------4----------------5------------4----------------|
|--2------------2----------------3------------2--------1h2p1h2-|
|--0--0-0-0-0-0----0-0-0-0-0-0-0----0-0-0-0-0----0-0-0---------|


Riff C
|----------------------------------|--------------------------------|
|----------------------------------|--------------------------------|
|----------------------------------|--------------------------------|
|----------------------------------|--------------------------------|
|--0-0-0-0-0-0-2-3-0-0-0-0-0-0-3-2-|--0-0-0-0-0-0-2-3-0-0-0-0-3--4--|
|----------------------------------|--------------------------1--2--|


Bridge A
|------------------------|
|------------------------|
|------------------------|
|------------------------|
|--4--3-------4--3-------|
|--2--1-------2--1-------|


Riff D
|--------------------------------|----------------------------------|
|--------------------------------|----------------------------------|
|--------------------------------|----------------------------------|
|--------------------------------|-----------------------4-------3--|
|--1-1-1-1-1-1-1-2-1-1-1-1-3--4--|--1-1-1-1-1-1-1-2-1-1----1-1-1----|
|--------------------------1--2--|----------------------------------|


Verse
|------------------------------------------------------------------|
|------------------------------------------------------------------|
|------------------------------------------------------------------|
|--7-9-9-9-9-9-9-9-7-9-9-9-9-9-9-9-7-9-9-9-9-9-9-9-7-9-9-9-7-7-7-7-|
|--5-7-7-7-7-7-7-7-5-7-7-7-7-7-7-7-5-7-7-7-7-7-7-7-5-7-7-7-5-5-5-5-|
|------------------------------------------------------------------|

Chorus
|------------------------------|-----------------------------|
|------------------------------------------------------------|
|------------------------------------------------------------|
|----------4--5----------7--5----------4--5------------------|
|----------2--3----------5--3----------2--3--5-5-3-3-2-2-----|
|--0-0-0-0-------0-0-0-0-------0-0-0-0-------------------3-3-|


Bridge B
|------------------------------------------------------------------|
|------------------------------------------------------------------|
|------------------------------------------------------------------|
|--5-------------------------------5-------------------------------|
|--3-3-3-3-5-------7-------3-------3-3-3-3-5-------7-7-------------|
|----------3-3-3-3-5-5-5-5-1-1-1-1---------3-3-3-3-5-5-------------|


Solo
|------------------------------------------------------------------|
|------------------------------------------------------------------|
|------------------------------------------------------------------|
|------------------------------------------------------------------|
|--3-3-3-3-3-3-3-3-------------------------------------------------|
|------------------3-3-3-3-3-3-3-3-5-5-5-5-5-5-5-5-1-1-1-1-1-1-1-1-|


Bridge C
|-------------------------------------------------------------------|
|-------------------------------------------------------------------|
|-------------------------------------------------------------------|
|--5-------------------------------5--------------------------------|
|--3-3-3-3-5-------7-------3-------3-3-3-3-5-------3-2-3-5-3-2------|
|----------3-3-3-3-5-5-5-5-1-1-1-1---------3-3-3-3-------------5-3--|

Riff E
|---------------------------------------------------------------------------|
|---------------------------------------------------------------------------|
|---------------------------------------------------------------------------|
|--------------------------------9-7-9--------7-5-7-------------------------|
|--------------------------------7-5-7--------5-3-5--------3-2-3-5-3-2------|
|--0--0--0--0--0--0--0--0--0--0---------0--0---------0--0--------------5-3--|


End
|--------|
|--------|
|--------|
|--------|
|--3--2--|
|--1--0--|
Suggest correction
Give kudos to tab author, rate the tab!
1 2 3 4 5
comments
print report bad tab
guest
You may want to rate the tab now too:
select rating
Wanna post a correction for this tab? Suggest correction