Oops, an error
Loading. Please wait.

Hands Of Fate tab

by Sadus
1,211 views 1 this week
no commentswrite comment
1 2 3 4 5
2 more votes to show rating
add to favorites
×
Save as Personal and add changes to this tab that will be seen only by you. Learn more ›
×
You can save this tab as Personal to edit and correct it or add notes. All changes will be seen only by you. Learn more »
launch autoscroll
font size
0
reset
how to read this tab
guitar tuner
edit
Autoscroll
slow
fast
+/-
esc
set tempo
stop
-------------------------------------------------------------------------------
                             Hands of Fate - Sadus
-------------------------------------------------------------------------------
Tabbed by:Jake Eras
Email:Final_Judgement@live.com


I didnt see this song in UG so i decided to tab out the main parts myself.
Its not the whole tab its just the beginning and main parts the rest was too difficult 
tab by ear. i mean come on its Sadus for christs sake!
 hope you enjoy

Tuning: Standard


 Figure A                                                    x4
e|---------------------------------------------------------------------------|
B|---------------------------------------------------------------------------|
G|---------------------------------------------------------------------------|
D|---------------------------------------------------------------------------|
A|-----------------------1-------------------------3-------------------------|
E|-00000000-1-0000000000---0000000000-1-0000000000---------------------------|

  Figure B
e|---------------------------------------------------------------------------|
B|---------------------------------------------------------------------------|
G|---------------------------------------------------------------------------|
D|---------------------------------------------------------------------------|
A|---------------------------------------------------------------------------|
E|-33333333333-22222-111111--00000000-1-0000000000-1-0000--------------------|

e|---------------------------------------------------------------------------|
B|---------------------------------------------------------------------------|
G|---------------------------------------------------------------------------|
D|---------------------------------------------------------------------------|
A|---------------------------------------------------------------------------|
E|-33333333333-222222-111111-------------------------------------------------|

   Repeat Figure A
          Figure B


  Figure C                                                                x2
e|---------------------------------------------------------------------------|
B|---------------------------------------------------------------------------|
G|---------------------------------------------------------------------------|
D|---------------------------------------------------------------------------|
A|---------------------------------------------------------------------------|
E|-000000-111111-222222-333333-000000-111111-333333-222222-------------------|

   Repeat Figure A
          Figure B


e|---------------------------------------------------------------------------|
B|---------------------------------------------------------------------------|
G|---------------------------------------------------------------------------|
D|---------------------------------------------------------------------------|
A|---------------------------------------------------------------------------|
E|-000000-111111-222222-333333-000000-111111-333333-222222-------------------|

e|---------------------------------------------------------------------------|
B|---------------------------------------------------------------------------|
G|---------------------------------------------------------------------------|
D|---------------------------------------------------------------------------|
A|-------------------------------------------5--4-----3----------------------|
E|-000000-111111-222222-333333-000000-111111-3--2--0--1----------------------|

e|---------------------------------------------------------------------------|
B|---------------------------------------------------------------------------|
G|---------------------------------------------------------------------------|
D|---------------------------------------------------------------------------|
A|---------------------------------------------------------------------------|
E|-000000000000000000000000000000000000000000000000000000000000000000000-----|

                                                                   x2
e|---------------------------------------------------------------------------|
B|---------------------------------------------------------------------------|
G|-------------------555-444-------------------------------------------------|
D|-----------222-333------------------------222-333-555-333------------------|
A|---------------------------------------------------------------------------|
E|-0-1-2-3----------------------0-1-3-2--------------------------------------|


e|---------------------------------------------------------------------------|
B|---------------------------------------------------------------------------|
G|---------------------------------------------------------------------------|
D|---------------------------------------------------------------------------|
A|-5h7777-5h7777-5h7777------------------------------------------------------|
E|------------------------5--7--3--5--2--------------------------------------|


e|---------------------------------------------------------------------------|
B|---------------------------------------------------------------------------|
G|----------------------------------------------5p4p2p0-4p2------------------|
D|--------0h2h4----------0h2h4---------0h2h4----------------3p2--------------|
A|-2222-4--------2222-4---------2222-4---------------------------------------|
E|---------------------------------------------------------------------------|


           Solo
   i didnt tab the solo cuz really its just random shredding


The rest is kind of hard to figure out so i just left that out

| /  slide up
| \  slide down
| h  hammer-on
| p  pull-off
| ~  vibrato
| +  harmonic
| x  Mute note

LYRICS
Victims will follow to their Death
Show no Sorrow
Steal their last Breath
Hide in the Shadows to seek out my Prey
Victim's Creator leads them away
Frustrating Desire to watch the Victim die
The ultimate Destiny
Is to rob you of your Life
To die, to kill for the Night
I'll capture the Chosen
Who's trapped in my Sight
No Mercy, no Pity
For the one in my Grasp
Your Days have been numbered
This is your Last
You struggle with your Adversary
Only to be eaten alive
Still hungry for Violence
Perpetual Hunter for Life
A Hunter again to punish the Weak
Craving the Flesh
The meat of the Beast
Strike and Devour
For the Balance of Death
In dominate, terminate
Nature of death
Extinction of Life awaits
Your Destiny at Hand
Hands of Fate grasp you and tighten
Yet only by Chance
Lashing out to Dominate
Your Trust in me is your one Mistake
Life's Blood you're forced to give
Canceling your Life to Live
Spewing liquid Life Form
Clenching Jaws
Blunder to your Fate, you take the Fall
Tearing into your Flesh with wicked Claws
Worm Consumption
Deterioration
Carcass Erosion, Contamination
Decomposition, Mutilation
Equalization of Death and Life
Balance of Death, Balance of Life
Life's prolonged Prerequisite
Is for you to Die
A Hunter again to punish the Weak
Craving the Flesh
The meat of the Beast
Strike and devour
For the Balance of Death
In dominate, terminate
Nature of Death
Extinction of Life awaits
Your destiny at Hand
Hands of Fate grasp you and tighten
Yet only by Chance
===============================================================================

            
            
Suggest correction
Creating personal tab
Creating personal tab
You can edit any tab online and save it as your Personal.

You can edit, replace or remove any tab part or add personal notes – all changes will be seen only by you.

Personal tabs can be accessed anytime from any device, even offline.
Learn more »
Give kudos to tab author, rate the tab!
1 2 3 4 5
comments
print report bad tab
guest
You may want to rate the tab now too:
select rating
Wanna post a correction for this tab? Suggest correction