Oops, an error
Loading. Please wait.

Triage bass

16 views 1 this week
no commentswrite comment
1 2 3 4 5
3 more votes to show rating
add to favorites
×
Save as Personal and add changes to this tab that will be seen only by you. Learn more ›
×
You can save this tab as Personal to edit and correct it or add notes. All changes will be seen only by you. Learn more »
launch autoscroll
font size
0
reset
guitar tuner
edit
Autoscroll
slow
fast
+/-
esc
set tempo
stop
[Intro]
G|---------------------------------------------|
D|---------------------------------------------|
A|------------------5-5-5-5-5-5-5-7-7-7-7-7-7-7|
E|0--22-2--0--22-20----------------------------|

G|-----------------------------------------------------|
D|---------------------------------------------12h14p11|
A|-------------------5-5-5-5-5-5-5-7-7-7-7-7-7/--------|
E|0--22--2--0--22-20-----------------------------------|

G|-----------------------------------------------------|
D|------------------------------------------4-4-4------|
A|5-5-5-5-5-5-5-7-7-7-7-7-7-7-4-4-4-4-4-4-4------------|
E|------------------------------------------------0-0-0|

G|--------------------------------------------|
D|--------------------------------------------|
A|5-5-5-5-5-5-5-7-7-7-7-7-7-7-----------------|
E|----------------------------0--22-2--0—22-20|

[Verse 1]
G|---------------------------------------------------------|
D|---------------------------------------------------------|
A|------------------------------5-5-5-5-5-5-5--------------|
E|2-2-2-2-2-2-2-2-2-2-2-2-2-2-2---------------0-0-0-0-0-0-0|

G|-------------------------------------------------------|
D|-------------------------------------------------------|
A|----------------------------5-5-5-5-5-5-5-7-7-7-7-7-7-7|
E|2-2-2-2-2-2-2-2-2-2-2-2-2-2----------------------------|

G|-------------------------------------------------------------------------------------------------------|
D|-------------------------------------------------------------------------------------------------------|
A|9-9-9-9-9-9-9-9-9-9-9-9-9-9-9-5-5-5-5-5-5-5-7-7-7-7-7-7-7-2-2-2-2-2-2-2-4-4-4-4-4-4-4------------------|
E|--------------------------------------------------------------------------------------0--22-2--0--22-20|

[Pre-Chorus]
G|-------7-7-7-------------------6---6---6-----------------|
D|-----------------------------------------------9---9---9-|
A|/5-5-5-------------------4-4-4---4---4---9-9-9---9---9---|
E|-------------0-0-0-0-0-0---------------------------------|

G|----------------------------------------------------------------------------------------------------------|
D|----------------------------------------------------------------------------------------------------------|
A|2--2-2-2-2-2-2-2-2-2-2-2-2-2--4--4-4-4-4-4-4-4-4-4-4-4-4-4--5--5-5-5-5-5-5-5-5-5-5-5-5-5--7--7-7-7-7-7-7-7|
E|----------------------------------------------------------------------------------------------------------|

G|--------|
D|--------|
A|7-7--6-6|
E|--------|

[Chorus 1]
G|--------------------------------------------------------|
D|--------------------------------------------------------|
A|------------------------------2--2-2-2-2-2-2------------|
E|4--4-4-4-4-4-4-0--0-0-0-0-0-0----------------2-2-2-3-3-3|

G|-----------------------------------------------------------------------------------------------------------|
D|---------------------------------------------2-3-4--3-4-5--4-5-6--6-6-6-6-6-6------------------------------|
A|------------------------------2--2-2-2-2-2-2----------------------------------7--7-7-7-7-7-7-2--2-2-2-2-2-2|
E|4--4-4-4-4-4-4-0--0-0-0-0-0-0------------------------------------------------------------------------------|

G|-----------|
D|-----------|
A|-----------|
E|2-2-2-3-3-3|

G|-----------------------------------------------------------|
D|-----------------------------------------------------------|
A|-----------------------------------------------------------|
E|0--0-0-0-0-0-0--2--2-2-2-2-2-2--3--3-3-3-3-3-3--4-4-4-2-2-2|

G|---------------------------------------------------|
D|---------------------------------------------------|
A|---------------------------------------------------|
E|0--0-0-0-0-0-0--2--2-2-2-2-2-2--2--4-4--4-2--4-4--2|

[Pre Verse 2]
G|-----------------------------------------------------|
D|------------------------------------------4-4-4------|
A|5-5-5-5-5-5-5---------------4-4-4-4-4-4-4------------|
E|--------------0-0-0-0-0-0-0---------------------0-0-0|

G|---------------------------|
D|---------------------------|
A|5-5-5-5-5-5-5--------------|
E|--------------0-0-0-0-0-0-0|

[Verse 2]
G|-----------------------------------------------------------|
D|-----------------------------------------------------------|
A|9-9-9-9-9-9-9-9-9-9-9-9-9-9-9-5--5-5-5-5-5-5-7--7-7-7-7-7-7|
E|-----------------------------------------------------------|

G|----------------------------------------------|   
D|----------------------------------------------|
A|9-9-9-9-9-9-9-9-9-9-9-9-9-9-9-5--5-5-5-5-5-5-7|
E|----------------------------------------------|

G|5h7p5----|
D|------7-5| 
A|---------| 
E|---------|

G|-------------------------------------------------------------------------------------------------------|
D|-------------------------------------------------------------------------------------------------------|
A|9-9-9-9-9-9-9-9-9-9-9-9-9-9-9-5-5-5-5-5-5-5-7-7-7-7-7-7-7-2-2-2-2-2-2-2-4-4-4-4-4-4-4------------------|
E|--------------------------------------------------------------------------------------0--22-2--0--22-20|

[Pre-Chorus 2]
G|------------------------------------------|
D|----------------------------------------16|
A|5~/17-17-16-14-12-11-11-9-7-5-4-4-5/9-9/--|
E|------------------------------------------|

G|----------------------------------------------------------------------7-7-7----------------------|
D|----------------------------------------------------------------7-7-7-------7-7-7----------------|
A|2-2-2-2-2-2-2-2-2-2-2-2-2-4-4--4-4-4-4-4-4-4-4-4-4-4-4-5--5-5-5-------------------7-7-7-7-7-7-7-7|
E|-------------------------------------------------------------------------------------------------|

G|--------|
D|--------|
A|7-7--6-6|
E|--------|

[Chorus 2]
G|--------------------------------------------------------|
D|--------------------------------------------------------|
A|------------------------------2--2-2-2-2-2-2------------|
E|4--4-4-4-4-4-4-0--0-0-0-0-0-0----------------2-2-2-3-3-3|

G|-----------------------------------------------------------------------------------------------------------|
D|---------------------------------------------2-3-4--3-4-5--4-5-6--6-6-6-6-6-6------------------------------|
A|------------------------------2--2-2-2-2-2-2----------------------------------7--7-7-7-7-7-7-2--2-2-2-2-2-2|
E|4--4-4-4-4-4-4-0--0-0-0-0-0-0------------------------------------------------------------------------------|

G|-----------|
D|-----------|
A|-----------|
E|2-2-2-3-3-3|

G|-----------------------------------------------------------|
D|-----------------------------------------------------------|
A|-----------------------------------------------------------|
E|0--0-0-0-0-0-0--2--2-2-2-2-2-2--3--3-3-3-3-3-3--4-4-4-2-2-2|

G|---------------------------------------------------|
D|---------------------------------------------------|
A|---------------------------------------------------|
E|0--0-0-0-0-0-0--2--2-2-2-2-2-2--2--4-4--4-2--4-4--2|

[Solo]
G|---------------------------------------------------------------------------------|
D|---------------------------------------------------------------------------------|
A|---------------------------------------------------------------------------------|
E|0--0-0-0-0-0-0--2--2-2-2-2-2-2--2--4-4--4-2--4-4--2-0--0-0-0-0-0-0-2--2-2-2-2-2-2|

G|-----------------------------------------------------|
D|------------------------------------------4-4-4------|
A|5-5-5-5-5-5-5---------------4-4-4-4-4-4-4------------|
E|--------------0-0-0-0-0-0-0---------------------0-0-0|

G|--------------------------------------7-7-9-9~\|
D|----------------------------------7-7----------|
A|2--2-2-2-2-2-2-4--4-4-4-4-4-4-5-5--------------|
E|-----------------------------------------------|

[Break]
(Guitar Only)
Or try:
G|-----11-11~--------------7-7~--------------9-9~---------9-9~--|
D|--11~------11~---------7~----7~----------9~----9~-----9~----9~|
A|9~-------------------5~----------------7~-----------7~--------|
E|--------------------------------------------------------------|

G|-----11-11~--------------7-7~--------------9-9~----------------------|
D|--11~------11~---------7~----7~----------9~----9~--9-9--7-7--8-8--8-8|
A|9~-------------------5~----------------7~----------7-7--5-5--6-6--6-6|
E|---------------------------------------------------------------------|

[Chorus 3]
G|--------------------------------------------------------|
D|--------------------------------------------------------|
A|------------------------------2--2-2-2-2-2-2------------|
E|4--4-4-4-4-4-4-0--0-0-0-0-0-0----------------2-2-2-3-3-3|

G|-------------------------------------------------------------------------------------------------------|
D|---------------------------------------------2-3-4--3-4-5--4-5-6--6-6-6-6-6-6/14-14-14-14-14-14-14-12-9|
A|------------------------------2--2-2-2-2-2-2-----------------------------------------------------------|
E|4--4-4-4-4-4-4-0--0-0-0-0-0-0--------------------------------------------------------------------------|

G|---------------------|
D|9-9-9-9-9-4-4-4-5-5-5|
A|---------------------|
E|---------------------|

G|-----------------------------------------------------------|
D|-----------------------------------------------------------|
A|-----------------------------------------------------------|
E|0--0-0-0-0-0-0--2--2-2-2-2-2-2--3--3-3-3-3-3-3--4-4-4-2-2-2|

[END]
G|-----------------------------------------------------------------------------|
D|-----------------------------------------------------------------------------|
A|-----------------------------------------------------------------------------|
E|0--0-0-0-0-0-0--2--2-2-2-2-2-2--2--4-4--4--2--4-4—4-2--2--4-4--4--2--4-4--4-2|

G|---(8)~-|
D|---(6)~-|
A|--------|
E|4~------|

************************************

| h  Hammer-on
| p  Pull-off
| /  Slide up
| ~  Vibrato

************************************

            
            
Suggest correction
Creating personal tab
Creating personal tab
You can edit any tab online and save it as your Personal.

You can edit, replace or remove any tab part or add personal notes – all changes will be seen only by you.

Personal tabs can be accessed anytime from any device, even offline.
Learn more »
Give kudos to tab author, rate the tab!
1 2 3 4 5
comments
print report bad tab
guest
You may want to rate the tab now too:
select rating
Wanna post a correction for this tab? Suggest correction