Oops, an error
Loading. Please wait.

Louver tab

22 views 1 this week
no commentswrite comment
1 2 3 4 5
3 more votes to show rating
add to favorites
×
Save as Personal and add changes to this tab that will be seen only by you. Learn more ›
×
You can save this tab as Personal to edit and correct it or add notes. All changes will be seen only by you. Learn more »
launch autoscroll
font size
0
reset
how to read this tab
guitar tuner
edit
Autoscroll
slow
fast
+/-
esc
set tempo
stop
[Intro]
eb|-------------------|----------------|----------------------|------------------|
Bb|------0------0-----|----------------|-----0--------0-------|------------------|
Gb|-----------------0-|----------------|----------------------|------------------|
Db|-------------------|----------------|----------------------|------------------|
Ab|-2--------3--------|----------------|-2--------3-----------|------------------|
Eb|-------------------|----------------|------------------0---|------------------|

eb|-------------------|----------------|----------------------|------------------|
Bb|------0------0-----|----------------|-----0--------0-------|------------------|
Gb|-----------------0-|----------------|----------------------|------------------|
Db|-------------------|----------------|----------------------|------------------|
Ab|-2--------3--------|----------------|-2--------3-----------|------------------|
Eb|-------------------|----------------|------------------0---|------------------|

[Verse]
Guitar 1
eb|-------------------|----------------|--------------------|--------------------|
Bb|-------------------|----------------|--------------------|--------------------|
Gb|-9~-------------7--|----------------|--9~-------------7--|----11~-------------|
Db|--------7---9------|---9~-----------|----------7---9-----|--------------------|
Ab|-------------------|----------------|--------------------|--------------------|
Eb|-------------------|----------------|--------------------|--------------------|

eb|-------------------|----------------|--------------------|--------------------|
Bb|-------------------|----------------|-----------------8--|--------------------|
Gb|-9~------------7---|----------------|-9~------------7----|--8-----------------|
Db|--------7---9------|--8-------------|---------7---9------|--------------------|
Ab|-------------------|----------------|--------------------|--------------------|
Eb|-------------------|----------------|--------------------|--------------------|

eb|-------------------|----------------|--------------------|--------------------|
Bb|-------------------|----------------|--------------------|--------------------|
Gb|-9~-------------7--|----------------|--9~-------------7--|----11~-------------|
Db|--------7---9------|---9~-----------|----------7---9-----|--------------------|
Ab|-------------------|----------------|--------------------|--------------------|
Eb|-------------------|----------------|--------------------|--------------------|

eb|-------------------|----------------|
Bb|-------------------|----------------|
Gb|-9~------------7---|----------------|
Db|--------7---9------|--8-------------|
Ab|-------------------|----------------|
Eb|-------------------|----------------|

Guitar 2
eb|-----------------|-------------------|--------------------|-------------------|
Bb|-----------------|-------------------|--------------------|-------------------|
Gb|-----------------|-------------------|--------------------|-------------------|
Db|-----------------|-------------------|--------------------|-------------------|
Ab|-----------------|-------------------|--------------------|-------------------|
Eb|-----------------|7-77-7-8-88-8--3-3-|7-7-0---------------|7-77-7-8-88-8--3-3-|

eb|-----------------|-------------------|--------------------|-------------------|
Bb|-----------------|-------------------|--------------------|-------------------|
Gb|-----------------|-------------------|--------------------|-------------------|
Db|-----------------|-------------------|--------------------|-------------------|
Ab|-----------------|-------------------|--------------------|-------------------|
Eb|-----------------|7-77-7-8-88-8--3-3-|7-7-0---------------|7-77-7-8-88-8--3-3-|

eb|-----------------|-------------------|--------------------|-------------------|
Bb|-----------------|-------------------|--------------------|-------------------|
Gb|-----------------|-------------------|--------------------|-------------------|
Db|-----------------|-------------------|--------------------|-------------------|
Ab|-----------------|-------------------|--------------------|-------------------|
Eb|-----------------|7-77-7-8-88-8--3-3-|7-7-0---------------|7-77-7-8-88-8--3-3-|


eb|-----------------|-------------------|
Bb|-----------------|-------------------|
Gb|-----------------|-------------------|
Db|-----------------|-------------------|
Ab|-----------------|-------------------|
Eb|7-7-0------------|7-77-7-8-88-8--3-3-|

[Chorus]
Guitar 1
eb|------------------|-------------------|---------------------|-----------------|
Bb|-------0--0-------|-------------------|----------0--0-------|-----------------|
Gb|------------0-----|-------------------|----------------0----|-----------------|
Db|------------------|-4-----------------|---------------------|--4--------------|
Ab|------------------|-------------------|---------------------|-----------------|
Eb|------------------|-------------------|---------------------|-----------------|

eb|------------------|-------------------|---------------------|-----------------|
Bb|-------0--0-------|-------------------|----------0--0-------|-----------------|
Gb|------------0-----|-------------------|----------------0----|-----------------|
Db|------------------|-4-----------------|---------------------|--4--------------|
Ab|------------------|-------------------|---------------------|-----------------|
Eb|------------------|-------------------|---------------------|-----------------|

Guitar 2

eb|----------------|-----------------|-----------------|-----------------|
Bb|----------------|-----------------|-----------------|-----------------|
Gb|----------------|-----------------|-----------------|-----------------|
Db|----------------|-----------------|-----------------|-----------------|
Ab|-2-22--3-33--3-3|3--3-33--3-33-33-|-2-22--3-33------|-----------------|
Eb|----------------|-----------------|--------------0--|-----------------|

eb|----------------|-----------------|-----------------|-----------------|
Bb|----------------|-----------------|-----------------|-----------------|
Gb|----------------|-----------------|-----------------|-----------------|
Db|----------------|-----------------|-----------------|-----------------|
Ab|-2-22--3-33--3-3|3--3-33--3-33-33-|-2-22--3-33------|-----------------|
Eb|----------------|-----------------|--------------0--|-----------------|

[Verse]
Guitar 1
eb|-------------------|----------------|--------------------|--------------------|
Bb|-------------------|----------------|--------------------|--------------------|
Gb|-9~-------------7--|----------------|--9~-------------7--|----11~-------------|
Db|--------7---9------|---9~-----------|----------7---9-----|--------------------|
Ab|-------------------|----------------|--------------------|--------------------|
Eb|-------------------|----------------|--------------------|--------------------|

eb|-------------------|----------------|--------------------|--------------------|
Bb|-------------------|----------------|--------------------|--------------------|
Gb|-9~------------7---|----------------|-9~------------7----|--8-----------------|
Db|--------7---9------|--8-------------|---------7---9------|--------------------|
Ab|-------------------|----------------|--------------------|--------------------|
Eb|-------------------|----------------|--------------------|--------------------|

eb|-------------------|----------------|--------------------|--------------------|
Bb|-------------------|----------------|--------------------|--------------------|
Gb|-9~-------------7--|----------------|--9~-------------7--|----11~-------------|
Db|--------7---9------|---9~-----------|----------7---9-----|--------------------|
Ab|-------------------|----------------|--------------------|--------------------|
Eb|-------------------|----------------|--------------------|--------------------|

Guitar 2
eb|-----------------|-------------------|--------------------|-------------------|
Bb|-----------------|-------------------|--------------------|-------------------|
Gb|-----------------|-------------------|--------------------|-------------------|
Db|-----------------|-------------------|--------------------|-------------------|
Ab|-----------------|-------------------|--------------------|-------------------|
Eb|-----------------|7-77-7-8-88-8--3-3-|7-7-0---------------|7-77-7-8-88-8--3-3-|

eb|-----------------|-------------------|--------------------|-------------------|
Bb|-----------------|-------------------|--------------------|-------------------|
Gb|-----------------|-------------------|--------------------|-------------------|
Db|-----------------|-------------------|--------------------|-------------------|
Ab|-----------------|-------------------|--------------------|-------------------|
Eb|7-7-0------------|7-77-7-8-88-8--3-3-|7-7-0---------------|7-77-7-8-88-8--3-3-|

eb|-----------------|-------------------|--------------------|-------------------|
Bb|-----------------|-------------------|--------------------|-------------------|
Gb|-----------------|-------------------|--------------------|-------------------|
Db|-----------------|-------------------|--------------------|-------------------|
Ab|-----------------|-------------------|--------------------|-------------------|
Eb|7-7-0------------|7-77-7-8-88-8--3-3-|7-7-0---------------|7-77-7-8-88-8--3-3-|

[Outro]
For the outro, Chorus Guitar 1 is played for 4 measures while a different guitar plays the intro, but carries
on for a total of 7 measures. A different guitar plays the same intro riff an octave higher at the same time.
The higher octave is played like this

e|----7------7--------|
B|-0------------8-----|
G|-------5------------|
D|--------------------|
A|--------------------|
E|--------------------|

The Chorus Guitar 1 riff is played once more in the 7th measure, then the rest of the song is just that last
note held while the static and drums become increasingly intense, then the song cuts off.


************************************

| b  Bend
| ~  Vibrato

************************************
Suggest correction
Creating personal tab
Creating personal tab
You can edit any tab online and save it as your Personal.

You can edit, replace or remove any tab part or add personal notes – all changes will be seen only by you.

Personal tabs can be accessed anytime from any device, even offline.
Learn more »
Give kudos to tab author, rate the tab!
1 2 3 4 5
comments
print report bad tab
guest
You may want to rate the tab now too:
select rating
Wanna post a correction for this tab? Suggest correction